» » »

The Crown, Give You Hell Tabs (ver.1)

Artists:  A B C D E F G H I J K L M N O P Q R S T U V W X Y Z # 

Give You Hell Tabs (ver.1)

The Crown Tabs
Rating:
0/5 (0 votes)
Give You Hell lessons Tabs too difficult? Try these video lessons and learn fast
                Tune down to D

Intro:
riff A:
e|------------------------------------------------------------|
B|------------------------------------------------------------|
G|------------------------------6-------------------6---------|
D|--------8--------8-9--------8----9-8---------8-9----9-8-6-8-|
A|-6-6-6-----6-6-6------6-6-6-----------6-6-6-----------------|
E|------------------------------------------------------------|

e|------------------------------------------------------------|
B|------------------------------------------------------------|
G|------------------------------6-------------------6---------|
D|--------8--------8-9--------8----9-8---------8-9----9-8-6-8-|
A|-6-6-6-----6-6-6------6-6-6-----------6-6-6-----------------|
E|------------------------------------------------------------|

e|------------------------------------------------------------|
B|------------------------------------------------------------|
G|------------------------------6-------------------6---------|
D|--------8--------8-9--------8----9-8---------8-9----9-8-6-8-|
A|-6-6-6-----6-6-6------6-6-6-----------6-6-6-----------------|
E|------------------------------------------------------------|

e|------------------------------------------------------------|
B|------------------------------------------------------------|
G|------------------------------6-------------------6---------|
D|--------8--------8-9--------8----9-8---------8-9----9-8-6-8-|
A|-6-6-6-----6-6-6------6-6-6-----------6-6-6-----------------|
E|------------------------------------------------------------|

Riff B
e|------------------------------------------------------------|
B|------------------------------------------------------------|
G|-----8---9---11---------------------------------------------|
D|-9---8---9---11---------------------------------------------|
A|-7----------------------------------------------------------|
E|------------------------------------------------------------|

riff A:
e|------------------------------------------------------------|
B|------------------------------------------------------------|
G|------------------------------6-------------------6---------|
D|--------8--------8-9--------8----9-8---------8-9----9-8-6-8-|
A|-6-6-6-----6-6-6------6-6-6-----------6-6-6-----------------|
E|------------------------------------------------------------|

Riff B
e|------------------------------------------------------------|
B|------------------------------------------------------------|
G|-----8---9---11---------------------------------------------|
D|-9---8---9---11---------------------------------------------|
A|-7----------------------------------------------------------|
E|------------------------------------------------------------|

riff A:
e|------------------------------------------------------------|
B|------------------------------------------------------------|
G|------------------------------6-------------------6---------|
D|--------8--------8-9--------8----9-8---------8-9----9-8-6-8-|
A|-6-6-6-----6-6-6------6-6-6-----------6-6-6-----------------|
E|------------------------------------------------------------|

Riff B
e|------------------------------------------------------------|
B|------------------------------------------------------------|
G|-----8---9---11---------------------------------------------|
D|-9---8---9---11---------------------------------------------|
A|-7----------------------------------------------------------|
E|------------------------------------------------------------|

riff A:
e|------------------------------------------------------------|
B|------------------------------------------------------------|
G|------------------------------6-------------------6---------|
D|--------8--------8-9--------8----9-8---------8-9----9-8-6-8-|
A|-6-6-6-----6-6-6------6-6-6-----------6-6-6-----------------|
E|------------------------------------------------------------|

Riff B
e|------------------------------------------------------------|
B|------------------------------------------------------------|
G|-----8---9---11---------------------------------------------|
D|-9---8---9---11---------------------------------------------|
A|-7----------------------------------------------------------|
E|------------------------------------------------------------|

Play riff A & riff C together. (play it 4x)
e|------------------------------------------------------------|
B|------------------------------------------------------------|
G|------------------------------6-------------------6---------|
D|--------8--------8-9--------8----9-8---------8-9----9-8-6-8-|
A|-6-6-6-----6-6-6------6-6-6-----------6-6-6-----------------|
E|------------------------------------------------------------|

Riff C
e|------------------------------------------------------------|
B|------------------------------------------------------------|
G|------------------------------------------------------------|
D|------------------------------------------------------------|
A|-7-7-7-7--3-3-3-3---7-3h7--5--3p2h3p2-----------------------|
E|------------------------------------------------------------|

Riff B
e|------------------------------------------------------------|
B|------------------------------------------------------------|
G|-----8---9---11---------------------------------------------|
D|-9---8---9---11---------------------------------------------|
A|-7----------------------------------------------------------|
E|------------------------------------------------------------|

riff A:
e|------------------------------------------------------------|
B|------------------------------------------------------------|
G|------------------------------6-------------------6---------|
D|--------8--------8-9--------8----9-8---------8-9----9-8-6-8-|
A|-6-6-6-----6-6-6------6-6-6-----------6-6-6-----------------|
E|------------------------------------------------------------|

Riff B
e|------------------------------------------------------------|
B|------------------------------------------------------------|
G|-----8---9---11---------------------------------------------|
D|-9---8---9---11---------------------------------------------|
A|-7----------------------------------------------------------|
E|------------------------------------------------------------|

riff A:
e|------------------------------------------------------------|
B|------------------------------------------------------------|
G|------------------------------6-------------------6---------|
D|--------8--------8-9--------8----9-8---------8-9----9-8-6-8-|
A|-6-6-6-----6-6-6------6-6-6-----------6-6-6-----------------|
E|------------------------------------------------------------|

Riff B
e|------------------------------------------------------------|
B|------------------------------------------------------------|
G|-----8---9---11---------------------------------------------|
D|-9---8---9---11---------------------------------------------|
A|-7----------------------------------------------------------|
E|------------------------------------------------------------|

riff A:
e|------------------------------------------------------------|
B|------------------------------------------------------------|
G|------------------------------6-------------------6---------|
D|--------8--------8-9--------8----9-8---------8-9----9-8-6-8-|
A|-6-6-6-----6-6-6------6-6-6-----------6-6-6-----------------|
E|------------------------------------------------------------|

Riff B
e|------------------------------------------------------------|
B|------------------------------------------------------------|
G|-----8---9---11---------------------------------------------|
D|-9---8---9---11---------------------------------------------|
A|-7----------------------------------------------------------|
E|------------------------------------------------------------|

Riff D under the solo:
e|------------------------------------------------------------|
B|------------------------------------------------------------|
G|------------------------------------------------------------|
D|------------------------------------------------------------|
A|-7-7-7-7---3-3-3-3-------------5-5-5-5----------------------|
E|---------------------5-5-5-5--------------------------------|

Solo (riff E, too hard for me, can't hear a thing of it, here are the
first few notes)
e|------------------------------------------------------------|
B|----------------------------------10h13--and so on...-------|
G|-12/15~--15p13--17p15p13---15h17----------------------------|
D|------------------------------------------------------------|
A|------------------------------------------------------------|
E|------------------------------------------------------------|

Riff B
e|------------------------------------------------------------|
B|------------------------------------------------------------|
G|-----8---9---11---------------------------------------------|
D|-9---8---9---11---------------------------------------------|
A|-7----------------------------------------------------------|
E|------------------------------------------------------------|

riff A:
e|------------------------------------------------------------|
B|------------------------------------------------------------|
G|------------------------------6-------------------6---------|
D|--------8--------8-9--------8----9-8---------8-9----9-8-6-8-|
A|-6-6-6-----6-6-6------6-6-6-----------6-6-6-----------------|
E|------------------------------------------------------------|

Riff B
e|------------------------------------------------------------|
B|------------------------------------------------------------|
G|-----8---9---11---------------------------------------------|
D|-9---8---9---11---------------------------------------------|
A|-7----------------------------------------------------------|
E|------------------------------------------------------------|

riff A:
e|------------------------------------------------------------|
B|------------------------------------------------------------|
G|------------------------------6-------------------6---------|
D|--------8--------8-9--------8----9-8---------8-9----9-8-6-8-|
A|-6-6-6-----6-6-6------6-6-6-----------6-6-6-----------------|
E|------------------------------------------------------------|

Riff B
e|------------------------------------------------------------|
B|------------------------------------------------------------|
G|-----8---9---11---------------------------------------------|
D|-9---8---9---11---------------------------------------------|
A|-7----------------------------------------------------------|
E|------------------------------------------------------------|

riff A:
e|------------------------------------------------------------|
B|------------------------------------------------------------|
G|------------------------------6-------------------6---------|
D|--------8--------8-9--------8----9-8---------8-9----9-8-6-8-|
A|-6-6-6-----6-6-6------6-6-6-----------6-6-6-----------------|
E|------------------------------------------------------------|

Riff B
e|------------------------------------------------------------|
B|------------------------------------------------------------|
G|-----8---9---11---------------------------------------------|
D|-9---8---9---11---------------------------------------------|
A|-7----------------------------------------------------------|
E|------------------------------------------------------------|

riff A:
e|------------------------------------------------------------|
B|------------------------------------------------------------|
G|------------------------------6-------------------6---------|
D|--------8--------8-9--------8----9-8---------8-9----9-8-6-8-|
A|-6-6-6-----6-6-6------6-6-6-----------6-6-6-----------------|
E|------------------------------------------------------------|

e|------------------------------------------------------------|
B|------------------------------------------------------------|
G|------------------------------6-------------------6---------|
D|--------8--------8-9--------8----9-8---------8-9----9-8-6-8-|
A|-6-6-6-----6-6-6------6-6-6-----------6-6-6-----------------|
E|------------------------------------------------------------|

e|------------------------------------------------------------|
B|------------------------------------------------------------|
G|------------------------------6-------------------6---------|
D|--------8--------8-9--------8----9-8---------8-9----9-8-6-8-|
A|-6-6-6-----6-6-6------6-6-6-----------6-6-6-----------------|
E|------------------------------------------------------------|

e|------------------------------------------------------------|
B|------------------------------------------------------------|
G|------------------------------6-------------------6---------|
D|--------8--------8-9--------8----9-8---------8-9----9-8-6-8-|
A|-6-6-6-----6-6-6------6-6-6-----------6-6-6-----------------|
E|------------------------------------------------------------|

riff A:
e|------------------------------------------------------------|
B|------------------------------------------------------------|
G|------------------------------6-------------------6---------|
D|--------8--------8-9--------8----9-8---------8-9----9-8-6-8-|
A|-6-6-6-----6-6-6------6-6-6-----------6-6-6-----------------|
E|------------------------------------------------------------|

e|------------------------------------------------------------|
B|------------------------------------------------------------|
G|------------------------------6-------------------6---------|
D|--------8--------8-9--------8----9-8---------8-9----9-8-6-8-|
A|-6-6-6-----6-6-6------6-6-6-----------6-6-6-----------------|
E|------------------------------------------------------------|

e|------------------------------------------------------------|
B|------------------------------------------------------------|
G|------------------------------6-------------------6---------|
D|--------8--------8-9--------8----9-8---------8-9----9-8-6-8-|
A|-6-6-6-----6-6-6------6-6-6-----------6-6-6-----------------|
E|------------------------------------------------------------|

e|------------------------------------------------------------|
B|------------------------------------------------------------|
G|------------------------------6-------------------6---------|
D|--------8--------8-9--------8----9-8---------8-9----9-8-6-8-|
A|-6-6-6-----6-6-6------6-6-6-----------6-6-6-----------------|
E|------------------------------------------------------------|
            

comments powered by Disqus
↑ Back to top | The Crown Tabs for Give You Hell. Lyrics for acoustic guitar and electric guitar. Tablatures and chords are parodies/interpretations of the original songs. You may use it for private study, scholarship, research or language learning purposes only