>
 >
Death Explosion

Death Explosion Guitar Tabs

The Crown - Death Explosion chords, tabs, tablatures, lyrics

Guitar lessons | Add/correct | Request | Top 50 tabs Artists:  A B C D E F G H I J K L M N O P Q R S T U V W X Y Z 0-9

Death Explosion Guitar Tabs – The Crown

CD, Sheet music, Poster

Do you like Death Explosion? Share with your friends now
Tabs
THE CROWN - DEATH EXPLOSION
(Deathrace King, 1999)

Key
= after note = vibrato
^ after note = heavy vibrato 
\ = slide down
/ = slide up
+ = tap
h = hammer
p = pull
n = natural harmonic
s = pinching harmonic (squeal)
* = tremolo pick
t = trill
b = bend
|-3-| = triplet

n number above the tab = play the first part then the first finishing part
			 play the first part a second time and then play the second finishing part
			 etc.

Riff 1

E ---------------------------------------
B ---------------------------------------
G ---------------------------------------
D ---------------------------------------
A ---------------------------------------
E -00-0-0-00-0-0-00-0-0-00-0-0-00-0-00-0-

Riff 2

E -----------------------------------------------------------
B -----------------------------------------------------------
G -----------------------------------------------------------
D -5----------4--5--3----------------------------------------
A -3----------2--3--3----------------------------------------
E -3----------2--3--1--00-0-0-00-0-0-00-0-0-00-0-0-00-0-00-0-

Riff 3A

E -----------------------------------------------------------------
B -----------------------------------------------------------------
G -----9-----9-----9-----9-------------9-----9-----9-----9---------
D -----9-----9-----9-----9---8-7-8-----9-----9-----9-----9---------
A -----7-----7-----7-----7---8-7-8-----7-----7-----7-----7---------
E -0-0---0-0---0-0---0-0---0-6-5-6-0-0---0-0---0-0---0-0---0-6-5-3-

E ----------------------------------------------------------------
B ----------------------------------------------------------------
G -----9-----9-----9-----9-------------9---9-9---9-9---9---9---9--
D -----9-----9-----9-----9---8-7-8-----9---9-9---9-9---9---9---9--
A -----7-----7-----7-----7---8-7-8-----7---7-7---7-7---7---7---7--
E -0-0---0-0---0-0---0-0---0-6-5-6-0-0---0-----0-----0---0---0----

Riff 3

E -------------------------------------------------------------------------
B -------------------------------------------------------------------------
G -------------------------------------------------------------------------
D -------------------------------8-7-8-------------------------------------
A -------------------------------8-7-8-------------------------------------
E -00-0-0-00-0-0-00-0-0-00-0-0-0-6-5-6-00-0-0-00-0-0-00-0-0-00-0-0-0-6-5-3-

E --------------------------------------------------------------------------
B --------------------------------------------------------------------------
G -----------------------------------------------------------------------9--
D -------------------------------8-7-8-----------------------------------9--
A -------------------------------8-7-8-----------------------------77-77-7--
E -00-0-0-00-0-0-00-0-0-00-0-0-0-6-5-6-00-0-0-00-0-0-00-0-0-00-0-0----------

Riff 3B

E -------------------------------------------------------------------------
B -------------------------------------------------------------------------
G -------------------------------------------------------------------------
D -------------------------------8-7-8-------------------------------------
A -------------------------------8-7-8-------------------------------------
E -00-0-0-00-0-0-00-0-0-00-0-0-0-6-5-6-00-0-0-00-0-0-00-0-0-00-0-0-0-6-5-3-

E --------------------------------------------------------------------
B --------------------------------------------------------------------
G -----------------------------------------9---9-9---9-9---9---9---9--
D -------------------------------8-7-8-----9---9-9---9-9---9---9---9--
A -------------------------------8-7-8-----7---7-7---7-7---7---7---7--
E -00-0-0-00-0-0-00-0-0-00-0-0-0-6-5-6-0-0---0-----0-----0---0---0----

Riff 3C

E -------------------------------------------------------------------------
B -------------------------------------------------------------------------
G -------------------------------------------------------------------------
D -------------------------------8-7-8-------------------------------------
A -------------------------------8-7-8-------------------------------------
E -00-0-0-00-0-0-00-0-0-00-0-0-0-6-5-6-00-0-0-00-0-0-00-0-0-00-0-0-0-6-5-3-

E ------------------------------------------------------------
B ------------------------------------------------------------
G ---------------------------------------------------------9--
D -------------------------------8-7-8-x\------------------9--
A -------------------------------8-7-8-x\------------77-77-7--
E -00-0-0-00-0-0-00-0-0-00-0-0-0-6-5-6-x\---------------------

Riff 4

E -----------------------------------------------------------------------------------------------
B -----------------------------------------------------------------------------------------------
G -4---5---7---5---4-5-7--4---5---7---5---4-7-5---4---5---7---5---4-5-7--4---5---7---5---4-7-5---
D -4---5---7---5---4-5-7--4---5---7---5---4-7-5---4---5---7---5---4-5-7--4---5---7---5---4-7-5---
A -2---3---5---3---2-3-5--2---3---5---3---2-5-3-0-2---3---5---3---2-3-5--2---3---5---3---2-5-3-0-
E -----------------------------------------------------------------------------------------------

Riff 4A

E -----------------------------------------------------------------------------------------------------------------------
B -------------------------------------------------------7-7-7-7-7-7-7-7-7-7-7-7-7-7-7-7-5-5-5-5-5-5-5-5-5-5-5-5-5-5-5-5-
G -4---5---7---5---4-5-7------4-----5-----7-----5--------4-4-4-4-4-4-4-4-4-4-4-4-4-4-4-4-4-4-4-4-4-4-4-4-4-4-4-4-4-4-4-4-
D -4---5---7---5---4-5-7--4-4---5-5---7-7---7-7--------------------------------------------------------------------------
A -2---3---5---3---2-3-5--------------------------2-5-3------------------------------------------------------------------
E -----------------------------------------------------------------------------------------------------------------------

Riff 5

E --------------------------------------------------------------------------
B --------------------------------------------------------------------------
G --------------------------------------------------------------------------
D -------------------------------------------------------------------7-8-7--
A -------------------------------------------------------------------7-8-7--
E -00-0-0-00-0-0-00-0-3-33-3-3-33-3-33-3-00-0-0-00-0-0-00-0-5-55-5-5-5-6-5--

Riff 5A

E --------------------------------------------------------------------------
B --------------------------------------------------------------------------
G -------------------------------------------------------------------7-8-7--
D -------------------------------------------------------------------7-8-7--
A -00-0-0-00-0-0-00-0-3-33-3-3-33-3-33-3-00-0-0-00-0-0-00-0-5-55-5-5-5-6-5--
E --------------------------------------------------------------------------

E -----------------------------------------------------------------------
B -----------------------------------------------------------------------
G ---------------------------------------------------------------7-8-7---
D ---------------------------------------------------------------7-8-7---
A -00-0-0-00-0-0-00-0-3-33-3-3-33-3-33-3-5-5-5-5-5-5-5-5-5-5-5-5-5-6-5-0-
E -----------------------------------------------------------------------

Riff 6

E -------------------------------------
B -------------------------------------
G -------------------------------------
D -7--------8----5----7----------------
A -7--------8----5----7----------------
E -5--------6----3----5----------------

Riff 6A

E -55-55-55-33-33-33----------------55-55-33-------5----------------
B -------------------55-33-55-55-55----------55-33-5----------------
G ------------------------------------------------------------------
D ------------------------------------------------------------------
A ------------------------------------------------------------------
E ------------------------------------------------------------------

Riff 6B

E ----------------------------------------
B ----------------------------------------
G ----------------------------------------
D -7--------8----5----7-----------------7-
A -7--------8----5----7-----------------7-
E -5--------6----3----5--------------55-5-

Riff 6C

E -55-55-55-33-33-33----------------55-55-33-------5-------------------
B -------------------55-33-55-55-55----------55-33-5-------------------
G ---------------------------------------------------------------------
D -------------------------------------------------------------------7-
A -------------------------------------------------------------------7-
E ----------------------------------------------------------------55-5-

Order

Riff 1 x 4
Riff 2 x 4
Riff 3A x 1
Riff 3 x 1
Riff 3B x 1
Riff 4/4A x 2
Riff 3C x 1
Riff 3B x 2
Riff 4/4A x 2
Solo over Riff 2 x 4
Solo over Riff 5 x 2
Solo over Riff 5A x 1
Riff 4/4A x 2
Riff 6 x 2
Riff 6/6A x 2
Riff 6/6A x 4
Riff 6B/6C x 2





Comments


Popular The Crown tabs & chords
World Below Bass Tabs
Angels Die Tabs
Black Lightning Tabs
Dead Mans Song Tabs
Deathexplosion Tabs
Give You Hell Tabs
I Wont Follow Tabs
Under The Whip Tabs
Under The Whip 1 Tabs
World Below Tabs


Song lyrics



↑ Back to top | Tablatures and chords are parodies/interpretations of the original songs. You may use it for private study, scholarship, research or language learning purposes only
© 2014 AZChords.com Contact us | Privacy policy | DMCA | Add/correct tabs | Request tabs | Top 50 tabs