» » »

The Crown, Death Explosion Bass tabs (ver.1)

Artists:  A B C D E F G H I J K L M N O P Q R S T U V W X Y Z # 

Death Explosion Bass tabs (ver.1)

The Crown Tabs
 Rating:
4/5 (4 votes)
Death Explosion lessons Tabs too difficult? Try these video lessons and learn fast
1
                
DEATHEXPLOSION (Bassline)
As recorded by The Crown
(From the 2004 Album DEATHRACE KING)

	

Words and Music by The Crown
Arranged by Woutjinho

Gtr I (E A D G) - 'Bass'

 Intro
  Q=215
 4/4
  Gtr I
  W          W          W          W          W
|----------|----------|----------|----------|------|
|----------|----------|----------|----------|------|
|----------|----------|----------|----------|------|
|----------|----------|----------|----------|------|


  W          W          W          W
|----------|----------|----------|------|
|----------|----------|----------|------|
|----------|----------|----------|------|
|----------|----------|----------|------|


   Pre-Verse
    E E E E E E E E   E E Q  Q  Q    S S E E S S E E S S E
||------------------|--------------|-----------------------|
||o-----------------|--------------|-----------------------|
||o-3-3-3-3-3-3-3-3-|-3-3-2--3--2--|-----------------------|
||------------------|--------------|-0-0-0-0-0-0-0-0-0-0-0-|


  1.,2.,3.                  4.
  E S S E E S S E S S E     E S S E E S S S S E E
|------------------------||-----------------------|
|-----------------------o||-----------------------|
|-----------------------o||-----------------------|
|-0-0-0-0-0-0-0-0-0-0-0--||-0-0-0-0-0-0-0-0-0-0---|


   Verse
                                                         1.
    PM|   PM|   PM|     PM|   PM  PM    PM|   PM|   PM|     PM|   PM
    E E E E E E E E   E E E E E E E E   E E E E E E E E   E E E E E E E E
||------------------|-----------------|-----------------|-------------------||
||o-----------------|-----------------|-----------------|------------------o||
||o-----7-----7-----|-7-----7---6---6-|-----7-----7-----|-7-----7----------o||
||--0-0---0-0---0-0-|---0-0---0---0---|-0-0---0-0---0-0-|---0-0---0-6-5-3---||


  2.
  PM|   PM    PM    PM  PM
  E E E E E E E E   E E E E S S S S E E
|-----------------|---------------------|
|-----------------|---------------------|
|-----7---7-7---7-|---7---7-7-7-7-7-7---|
|-0-0---0-----0---|-0---0---------------|


                                      PM  PM
  S S E E S S E E S S E   S S E E S S E E E E
|-----------------------|---------------------|
|-----------------------|---------------------|
|-----------------------|---------------6---6-|
|-0-0-0-0-0-0-0-0-0-0-0-|-0-0-0-0-0-0-0---0---|


  S S E E S S E E S S E   S S E E S S S S S S E E
|-----------------------|-------------------------|
|-----------------------|-------------------------|
|-----------------------|-------------7-7-7-7-7---|
|-0-0-0-0-0-0-0-0-0-0-0-|-0-0-0-0-0-0-------------|


                                      PM  PM
  S S E E S S E E S S E   S S E E S S E E E E
|-----------------------|---------------------|
|-----------------------|---------------------|
|-----------------------|---------------6---6-|
|-0-0-0-0-0-0-0-0-0-0-0-|-0-0-0-0-0-0-0---0---|


  S S E E S S E E S S E   S S E E S S E E  E E
|-----------------------|------------------------|
|-----------------------|------------------------|
|-----------------------|------------------------|
|-0-0-0-0-0-0-0-0-0-0-0-|-0-0-0-0-0-0-0-6\-5-3---|


                                      PM  PM
  S S E E S S E E S S E   S S E E S S E E E E
|-----------------------|---------------------|
|-----------------------|---------------------|
|-----------------------|---------------6---6-|
|-0-0-0-0-0-0-0-0-0-0-0-|-0-0-0-0-0-0-0---0---|


                          PM|   PM    PM    PM  PM
  S S E E S S E E S S E   E E E E E E E E   E E E E S S S S E E
|-----------------------|-----------------|---------------------|
|-----------------------|-----------------|---------------------|
|-----------------------|-----7---7-7---7-|---7---7-7-7-7-7-7---|
|-0-0-0-0-0-0-0-0-0-0-0-|-0-0---0-----0---|-0---0---------------|


   Chorus
    E E E E E E E E   E E E E E E Q    E E E E E E E E   E E E E E E Q    4x
||------------------|----------------|-----------------|------------------||
||o-----------------|----------------|-----------------|-----------------o||
||o-2-2-2-3-3-3-5-5-|-5-3-3-3-2-3S5--|-2-2-2-3-3-3-5-5-|-5-3-3-3-2-3S0---o||
||------------------|----------------|-----------------|------------------||


 Verse
  W          H    E E E E   W          H    E E E E
|----------|--------------|----------|--------------|
|----------|--------------|----------|--------------|
|----------|--------6---6-|----------|--------------|
|----------|--------------|----------|--------6-5-3-|


  E H..         H    E E E E    W           +Q   Q  S S S S E E
|-------------|--------------|-----------|------------------------|
|-------------|--------------|-----------|------------------------|
|-------------|--------6---6-|-----------|----------7-7-7-7-7-----|
|-0-----------|--------------|-10--------|-(10)--x----------------|


                                        PM  PM
    S S E E S S E E S S E   S S E E S S E E E E
||------------------------|---------------------|
||o-----------------------|---------------------|
||o-----------------------|---------------6---6-|
||--0-0-0-0-0-0-0-0-0-0-0-|-0-0-0-0-0-0-0---0---|


  S S E E S S E E S S E   S S E E S S E E  E E
|-----------------------|-----------------------|
|-----------------------|-----------------------|
|-----------------------|-----------------------|
|-0-0-0-0-0-0-0-0-0-0-0-|-0-0-0-0-0-0-0-6\-5-3--|


                                      PM  PM
  S S E E S S E E S S E   S S E E S S E E E E
|-----------------------|---------------------|
|-----------------------|---------------------|
|-----------------------|---------------6---6-|
|-0-0-0-0-0-0-0-0-0-0-0-|-0-0-0-0-0-0-0---0---|


                          PM|   PM    PM    PM  PM
  S S E E S S E E S S E   E E E E E E E E   E E E E S S S S E E
|-----------------------|-----------------|----------------------||
|-----------------------|-----------------|---------------------o||
|-----------------------|-----7---7-7---7-|---7---7-7-7-7-7-7---o||
|-0-0-0-0-0-0-0-0-0-0-0-|-0-0---0-----0---|-0---0----------------||


   Chorus
    E E E E E E E E   E E E E E E Q    E E E E E E E E   E E E E E E Q    4x
||------------------|----------------|-----------------|------------------||
||o-----------------|----------------|-----------------|-----------------o||
||o-2-2-2-3-3-3-5-5-|-5-3-3-3-2-3S5--|-2-2-2-3-3-3-5-5-|-5-3-3-3-2-3S0---o||
||------------------|----------------|-----------------|------------------||


   Solo
    E E E E E E E E   E E Q  Q  Q    S S E E S S E E S S E
||------------------|--------------|-----------------------|
||o-----------------|--------------|-----------------------|
||o-3-3-3-3-3-3-3-3-|-3-3-2--3--2--|-----------------------|
||------------------|--------------|-0-0-0-0-0-0-0-0-0-0-0-|


  1.,2.,3.                  4.
  E S S E E S S E S S E     E S S E E S S S S E E
|------------------------||-----------------------|
|-----------------------o||-----------------------|
|-----------------------o||-----------------------|
|-0-0-0-0-0-0-0-0-0-0-0--||-0-0-0-0-0-0-0-0-0-0---|


    E E E E E E E E   E E E E E E E E   E E E E E E E E   E E E E E E E E
||------------------|-----------------|-----------------|-------------------||
||o-----------------|-----------------|-----------------|------------------o||
||o-----------------|-5-5-5-5-5-5-5-5-|-----------------|------------------o||
||--0-0-0-0-0-0-0-0-|-----------------|-0-0-0-0-0-0-0-0-|-5-5-5-5-5-6S5-3---||


    E E E E E E E E   E E E E E E E E   E E E E E E E E   E E E E E E E E
||------------------|-----------------|-----------------|-------------------||
||o-----------------|-5-5-5-5-5-5-5-5-|-----------------|------------------o||
||o-0-0-0-0-0-0-0-0-|-----------------|-0-0-0-0-0-0-0-0-|-5-5-5-5-5-6S5-3--o||
||------------------|-----------------|-----------------|-------------------||


   Chorus
    E E E E E E E E   E E E E E E Q    E E E E E E E E   E E E E E E Q    4x
||------------------|----------------|-----------------|------------------||
||o-----------------|----------------|-----------------|-----------------o||
||o-2-2-2-3-3-3-5-5-|-5-3-3-3-2-3S5--|-2-2-2-3-3-3-5-5-|-5-3-3-3-2-3S0---o||
||------------------|----------------|-----------------|------------------||


   Breakdown
    W          +W           W          W
||-----------|------------|----------|------|
||o----------|------------|----------|------|
||o-0--------|-(0)--------|-1--------|------|
||-----------|------------|----------|-3----|


  W          +W           +W           +W      4x
|----------|------------|------------|---------||
|----------|------------|------------|--------o||
|-0--------|-(0)--------|-(0)--------|-(0)----o||
|----------|------------|------------|---------||


    Q  Q  Q  Q    Q  Q  Q  Q    Q  Q  Q  Q    Q  Q  Q  Q
||--------------|-------------|-------------|--------------|
||o-------------|-------------|-------------|--------------|
||o-0--0--0--0--|-0--0--0--0--|-1--1--1--1--|--------------|
||--------------|-------------|-------------|-3--3--3--3---|


                             1.
  Q  Q  Q  Q    Q  Q  Q  Q    Q  Q  Q  Q
|-------------|-------------|-------------|
|-------------|-------------|-------------|
|-0--0--0--0--|-0--0--0--0--|-1--1--1--1--|
|-------------|-------------|-------------|


                  2.
                                 2/4
  Q  Q  Q  Q      Q  Q  E E E E   Q  Q
|--------------||---------------|-------|
|-------------o||---------------|-------|
|-------------o||-1--1--0-0-0-0-|-0-----|
|-3--3--3--3---||---------------|-------|


 Outro
 4/4
  Q  Q  Q  Q    Q  Q  Q  Q    Q  Q  Q  Q    Q  Q  Q  Q
|-------------|-------------|-------------|-------------|
|-------------|-------------|-------------|-------------|
|-0--0--0--0--|-0--0--0--0--|-1--1--1--1--|-------------|
|-------------|-------------|-------------|-3--3--3--3--|


                                    PM----|
  Q  Q  Q  Q    Q  Q  Q  Q    Q  Q  E E E E   Q  H.
|-------------|-------------|---------------|----------*|
|-------------|-------------|---------------|----------*|
|-0--0--0--0--|-0--0--0--0--|-1--1--0-0-0-0-|-0--------*|
|-------------|-------------|---------------|----------*|



Duration Legend
---------------
W - whole; H - half; Q - quarter; E - 8th; S - 16th; T - 32nd; X - 64th; a - acciaccatura
+ - note tied to previous; . - note dotted; .. - note double dotted
Uncapitalized letters represent notes that are staccato (1/2 duration)
Irregular groupings are notated above the duration line
Duration letters will always appear directly above the note/fret number it represents the
duration for.  Duration letters with no fret number below them represent rests.  Multi-
bar rests are notated in the form Wxn, where n is the number of bars to rest for.  Low
melody durations appear below the staff

Tablature Legend
----------------
 h   - hammer-on
 p   - pull-off
 b   - bend
 pb  - pre-bend
 r   - bend release (if no number after the r, then release immediately)
 /\  - slide into or out of (from/to "nowhere")
 s   - legato slide
 S   - shift slide
 - natural harmonic
[n]  - artificial harmonic
n(n) - tapped harmonic
 ~   - vibrato
 tr  - trill
 T   - tap
 TP  - trem. picking
 PM  - palm muting
\n/  - tremolo bar dip; n = amount to dip
 \n  - tremolo bar down
 n/  - tremolo bar up
/n\  - tremolo bar inverted dip
 =   - hold bend; also acts as connecting device for hammers/pulls
 <> - volume swell (louder/softer)
 x   - on rhythm slash represents muted slash
 o   - on rhythm slash represents single note slash

Misc Legend
-----------
 |  - bar
||  - double bar
||o - repeat start
o|| - repeat end
*|  - double bar (ending)
 :  - bar (freetime)
 $  - Segno
 &  - Coda
Tempo markers -  = BPM(8/16=s8/s16), where s8 = swing 8ths, s16 = swing 16ths
            
Submit corrections

comments powered by Disqus
↑ Back to top | The Crown Bass for Death Explosion. Lyrics for acoustic guitar and electric guitar. 1 Tablatures and chords are parodies/interpretations of the original songs. You may use it for private study, scholarship, research or language learning purposes only