>
 >
Angels Die

Angels Die Guitar Tabs

The Crown - Angels Die chords, tabs, tablatures, lyrics

Guitar lessons | Add/correct | Request | Top 50 tabs Artists:  A B C D E F G H I J K L M N O P Q R S T U V W X Y Z 0-9

Angels Die Guitar Tabs – The Crown

CD, Sheet music, Poster

Do you like Angels Die? Share with your friends now
Tabs
THE CROWN - ANGELS DIE
(Eternal Death, 1997)

Key
= after note = vibrato
^ after note = heavy vibrato 
\ = slide down
/ = slide up
+ = tap
h = hammer
p = pull
n = natural harmonic
s = pinching harmonic (squeal)
* = tremolo pick
t = trill
b = bend
|-3-| = triplet

n number above the tab = play the first part then the first finishing part
			 play the first part a second time and then play the second finishing part
			 etc.

Intro

E --------------------------0--------------------------------------------------0-------------------------
B ---0---------0------------0---------------------------0---------0------------0-------------------------
G -7-5-------7-5----7-7-5-5---------------------------7-5-------7-5----7-7-5-5---------------------------
D -7-7-------7-7----7-7-7-7-9 -------12-9 ----9 --12--7-7-------7-7----7-7-7-7-9 -------12-9 ----9 --12--
A -0-0-------0-0----0-0-0-0-10-------10-10----10--10--0-0-------0-0----0-0-0-0-10-------10-10----10--10--
E --------------------------0 -------0 -0 ----0 --0 ---------------------------0--------0 -0 ----0 --0 --

E ------------- ---------------------
B ------------- ---------------------
G -0--0--0--0-- ---------------------
D ------------- -2----5----4----7----
A -2--5--4--7-- -3----3----5----5----
E -3--3--5--5-- ---------------------

Riff 1

E ----------------------------------------------------------------------------
B ----------------------------------------------------------------------------
G -9--------------------5-----------4-----------------------------------------
D -9--------------------5-----------4--------5--------------------------------
A -7--------------22-22-3--------0--2--------5--------------------------------
E ----00-00-00-00----------00-00-------00-00-3--00-00-55-55-33-33-22-22-00-00-

Riff 2

E -------------------------------------------------------------------------------------------------
B -------------------------------------------------------------------------------------------------
G -------------------------------------------------------------------------------------------------
D -------------------------------------------------------------------------99-99-99-99-77-77-77-77-
A -77-77-77-77-77-77-77-77-55-55-55-55-55-55-55-55-------------------------------------------------
E -------------------------------------------------77-77-77-77-77-77-77-77-------------------------

  1
E -----------------------------------------------------------------------------------------
B -----------------------------------------------------------------------------------------
G ------------------------------------------------------------------------------7-------7--
D ------------------------------------------------------------------------------7-------7--
A -77-77-77-77-77-77-77-77-55-55-55-55-55-55-55-55-------------------------55-5-5--55-5-5--
E -------------------------------------------------77-77-77-77-77-77-77-77-----------------

  2
E ----------------------------------------------------------------------------------
B ----------------------------------------------------------------------------------
G ----------------------------------------------------------------------7--7--7--7--
D -------------------------------------------------9--------------------7--7--7--7--
A -77-77-77-77-77-77-77-77-55-55-55-55-55-55-55-55-9--------------------5--5--5--5--
E -------------------------------------------------7--77-77-77-77-77-77-------------

Riff 2A

E -------------------------------------------------------------------------------------------------
B -------------------------------------------------------------------------------------------------
G -------------------------------------------------------------------------77-77-77-77-55-55-55-55-
D -55-55-55-55-55-55-55-55-44-44-44-44-44-44-44-44-44-44-44-44-44-44-44-44-------------------------
A -------------------------------------------------------------------------------------------------
E -------------------------------------------------------------------------------------------------

  1
E -----------------------------------------------------------------------------------------
B -----------------------------------------------------------------------------------------
G ------------------------------------------------------------------------------7-------7--
D -55-55-55-55-55-55-55-55-44-44-44-44-44-44-44-44-44-44-44-44-44-44-44-44------7-------7--
A -------------------------------------------------------------------------55-5-5--55-5-5--
E -----------------------------------------------------------------------------------------

  2
E -------------------------------------------------------------------------------------
B -------------------------------------------------------------------------------------
G -------------------------------------------------------------------------7--7--7--7--
D -55-55-55-55-55-55-55-55-44-44-44-44-44-44-44-44-44-44-44-44-44-44-44-44-7--7--7--7--
A -------------------------------------------------------------------------5--5--5--5--
E -------------------------------------------------------------------------------------

Riff 2B

E -------------------------------------------------------------------------------------------------
B -------------------------------------------------------------------------------------------------
G -------------------------------------------------------------------------------------------------
D -------------------------------------------------------------------------99-99-99-99-77-77-77-77-
A -77-77-77-77-77-77-77-77-55-55-55-55-55-55-55-55-------------------------------------------------
E -------------------------------------------------77-77-77-77-77-77-77-77-------------------------

  1
E -------------------------------------------------------------------------------------------------
B -------------------------------------------------------------------------------------------------
G -------------------------------------------------------------------------------------------------
D -------------------------------------------------------------------------------------------------
A -77-77-77-77-77-77-77-77-55-55-55-55-55-55-55-55-------------------------55-55-55-55-55-55-55-55-
E -------------------------------------------------77-77-77-77-77-77-77-77-------------------------

  2
E ----------------------------------------------------------------------------------
B ----------------------------------------------------------------------------------
G ----------------------------------------------------------------------7--7--7--7--
D -------------------------------------------------9--------------------7--7--7--7--
A -77-77-77-77-77-77-77-77-55-55-55-55-55-55-55-55-9--------------------5--5--5--5--
E -------------------------------------------------7--77-77-77-77-77-77-------------

Riff 2C

E -------------------------------------------------------------------------------------------------
B -------------------------------------------------------------------------------------------------
G -------------------------------------------------------------------------77-77-77-77-55-55-55-55-
D -55-55-55-55-55-55-55-55-44-44-44-44-44-44-44-44-44-44-44-44-44-44-44-44-------------------------
A -------------------------------------------------------------------------------------------------
E -------------------------------------------------------------------------------------------------

  1
E -------------------------------------------------------------------------------------------------
B -------------------------------------------------------------------------------------------------
G -------------------------------------------------------------------------------------------------
D -55-55-55-55-55-55-55-55-44-44-44-44-44-44-44-44-44-44-44-44-44-44-44-44-77-77-77-77-77-77-77-77-
A -------------------------------------------------------------------------------------------------
E -------------------------------------------------------------------------------------------------

  2
E -------------------------------------------------------------------------------------
B -------------------------------------------------------------------------------------
G -------------------------------------------------------------------------7--7--7--7--
D -55-55-55-55-55-55-55-55-44-44-44-44-44-44-44-44-44-44-44-44-44-44-44-44-7--7--7--7--
A -------------------------------------------------------------------------5--5--5--5--
E -------------------------------------------------------------------------------------

Riff 2D

E -------------------------------------------------------------------------------------------------
B -------------------------------------------------------------------------------------------------
G -------------------------------------------------------------------------------------------------
D -------------------------------------------------------------------------99-99-99-99-77-77-77-77-
A -77-77-77-77-77-77-77-77-55-55-55-55-55-55-55-55-------------------------------------------------
E -------------------------------------------------77-77-77-77-77-77-77-77-------------------------

E -------------------------------------------------------------------------------------------------
B -------------------------------------------------------------------------------------------------
G -------------------------------------------------------------------------------------------------
D -------------------------------------------------------------------------------------------------
A -77-77-77-77-77-77-77-77-55-55-55-55-55-55-55-55-------------------------55-55-55-55-55-55-55-55-
E -------------------------------------------------77-77-77-77-77-77-77-77-------------------------

Riff 2E

E -------------------------------------------------------------------------------------------------
B -------------------------------------------------------------------------------------------------
G -------------------------------------------------------------------------77-77-77-77-55-55-55-55-
D -55-55-55-55-55-55-55-55-44-44-44-44-44-44-44-44-44-44-44-44-44-44-44-44-------------------------
A -------------------------------------------------------------------------------------------------
E -------------------------------------------------------------------------------------------------

E -------------------------------------------------------------------------------------------------
B -------------------------------------------------------------------------------------------------
G -------------------------------------------------------------------------------------------------
D -55-55-55-55-55-55-55-55-44-44-44-44-44-44-44-44-44-44-44-44-44-44-44-44-77-77-77-77-77-77-77-77-
A -------------------------------------------------------------------------------------------------
E -------------------------------------------------------------------------------------------------

Fill 1

E -------------------------
B -------------------------
G -------------------------
D -2-2-2-5-5-5-4-4-4-7-7-7-
A -3-3-3-3-3-3-5-5-5-5-5-5-
E -------------------------
   |-3-| |-3-| |-3-| |-3-|

Riff 3

E ----------------------------------------------------------------------------------------
B ----------------------------------------------------------------------------------------
G -9--------------------7--------------------5--------------------------------------------
D -9--------------------7--------------------5--------------------------------------------
A -7--77-77-77-77-77-77-5--55-55-55-55-55-55-3--33-33-33-33-33-33-33-33-33-33-55-55-55-55-
E ----------------------------------------------------------------------------------------

Riff 3A

E -------------------------------------------------------------------------------------------------
B -------------------------------------------------------------------------------------------------
G -44-44-------------44-44-------------------------------------------------------------------------
D -------55-55-55-55-------77-77-55-55-44-44-77-77-55-55-44-44-------55-55-77-77-55-55-44-44-55-55-
A -------------------------------------------------------------77-77-------------------------------
E -------------------------------------------------------------------------------------------------

Riff 3B

E -------------------------------------------------------------------------------------------------
B -------------------------------------------------------------------------------------------------
G -44-44-------------------44-44-------------------77-77-------------------------------------------
D -------77-77-55-55-44-44-------77-77-55-55-44-44-------55-55-------55-55-77-77-55-55-44-44-55-55-
A -------------------------------------------------------------77-77-------------------------------
E -------------------------------------------------------------------------------------------------

Riff 4

E --------------------------
B --------------------------
G -4----4-------------7--5--
D -4----4-------2-----7--5--
A -2----2--22-2-3--22-5--3--
E --------------------------

Riff 4A

E ------------------------------
B ------------------------------
G -4----4------------------7----
D -4----4-------2----------7----
A -2----2--22-2-3-33-3-3-3-5----
E ------------------------------

Riff 4B

E ------------------------------
B ------------------------------
G -4----4-----------------7--5--
D -4----4-------2---------7--5--
A -2----2--22-2-3-3-3-3-3-5--3--
E ------------------------------

Riff 4C

E ---------------------------------------------------
B ---------------------------------------------------
G -4----4-------------7--5--4----4-------------------
D -4----4-------2-----7--5--4----4-------2-2-2-4-4-2-
A -2----2--22-2-3--22-5--3--2----2--22-2-3-3-3-5-5-3-
E ---------------------------------------------------

Riff 5

E -------------------------------------------------------------------------------------------------------------------------
B -------------------------------------------------------------------------------------------------------------------------
G -----------------------------------------------------4-4-4-4-5-5-5-5-----------------------------------------------------
D -7-7-7-7-7-7-7-7-7-7-7-7-7-7-7-7-7-7-7-7-7-7-7-7-7-7-----------------2-2-2-2-2-2-2-2-2-2-2-2-2-2-2-2-2-2-2-2-2-2-2-2-2-2-
A -------------------------------------------------------------------------------------------------------------------------
E -------------------------------------------------------------------------------------------------------------------------

E ---------
B ---------
G ---------
D -5-5-5-5-
A ---------
E ---------

Riff 5A

E -------------------------------------------------------------------------------------------------------------------------
B -----------------------------------------------------3-3-3-3-------------------------------------------------------------
G -5-5-5-5-5-5-5-5-5-5-5-5-5-5-5-5-5-5-5-5-5-5-5-5-5-5---------5-5-5-5-4-4-4-4-4-4-4-4-4-4-4-4-4-4-7-4-4-4-4-4-0-0-0-0-4-4-
D -------------------------------------------------------------------------------------------------------------------------
A -------------------------------------------------------------------------------------------------------------------------
E -------------------------------------------------------------------------------------------------------------------------

E ---------
B ---------
G -7-7-4-4-
D ---------
A ---------
E ---------

Riff 6

E -----------------------
B -----------------------
G -----------------------
D ----------8----8----8--
A ----------7----7----7--
E -0-0-0-----------------

Riff 6A

E ----------------------------
B ----------------------------
G ----------------------------
D ----------8-8-8--8-8-8--8-8-
A ----------7-7-7--7-7-7--7-7-
E -0-0-0----------------------

Fill 2

E ---------------------------------------------------------
B ---------------------------------------------------------
G ---------------------------------------------------------
D ---------------------------------2-2-2-5-5-5-4-4-4-7-7-7-
A -2-2-2-2-5-5-5-5-4-4-4-4-7-7-7-7-3-3-3-3-3-3-5-5-5-5-5-5-
E -3-3-3-3-3-3-3-3-5-5-5-5-5-5-5-5-------------------------
				   |-3-| |-3-| |-3-| |-3-|

Order

Intro x 1
Riff 1 x 2
Solo over Riff 1 x 2
Riff 2/2A x 1
Riff 1 x 2
Riff 2B/2C x 1
Fill 1 x 1
Riff 3/3A x 4
Riff 4 x 3
Riff 4A x 1
Riff 2D/2E x 1
Riff 3/3A x 4
Riff 4 x 7
Riff 4B x 1
Riff 5/5A x 2
Riff 6 x 3
Riff 6A x 1
Riff 5/5A x 4
Fill 2 x 1
Solo over Riff 3 x 2
Solo over Riff 4C x 1
Solo over Riff 4 x 2
Solo over Riff 3 x 2
Riff 3/3A x 4
Riff 3/3B x 2





Comments


Popular The Crown tabs & chords
Deathexplosion Bass Tabs
World Below Bass Tabs
Black Lightning Tabs
Dead Mans Song Tabs
Death Explosion Tabs
Deathexplosion Tabs
Executioner Tabs
Give You Hell Tabs
I Wont Follow Tabs
Zombified Tabs


Song lyrics



↑ Back to top | Tablatures and chords are parodies/interpretations of the original songs. You may use it for private study, scholarship, research or language learning purposes only
© 2014 AZChords.com Contact us | Privacy policy | DMCA | Add/correct tabs | Request tabs | Top 50 tabs