>
 >
Zombies Ate Her Brain

Zombies Ate Her Brain Guitar Tabs

The Creepshow - Zombies Ate Her Brain chords, tabs, tablatures, lyrics

Guitar lessons | Add/correct | Request | Top 50 tabs Artists:  A B C D E F G H I J K L M N O P Q R S T U V W X Y Z 0-9

Zombies Ate Her Brain Guitar Tabs – The Creepshow

CD, Sheet music, Poster

Do you like Zombies Ate Her Brain? Share with your friends now
Tabs
zombies ate her brain


the creepshow






   i would like to tell a little story...
e:---------------------------------4-----------------0----------------------------------|
B:-9-------------------------------5-----------------1----------------4-----------------|
G:-9-------------------------------6-----------------2----------------4-----------------|
D:-9-------------------------------6-----------------2----------------4-----------------|
A:-7-------------------------------4-----------------0----------------2---------2-2h4-2-|
E:--------------------------------------------------------------------------------------|

e:----------------4-----------------0-----------------------------|
B:-9--------------5-----------------1-------------4---------------|
G:-9--------------6-----------------2-------------4---------4-5-4-|
D:-9--------------6-----------------2-------------4---------4-5-4-|
A:-7--------------4-----------------0-------------2---------2-3-2-|
E:----------------------------------------------------------------|
                                            
e:-------------------------------------------------------------------------------------|
B:-------------------------------------------------------------------------------------|
G:-9-9-9-9-9-9-9-9-9-9-9---6-6-6-6-6-6-6-6-6-6-6--2-2-2-2-2-2-2-2-2-2--4-4-4-4-4-4-4-4-|
D:-9-9-9-9-9-9-9-9-9-9-9---6-6-6-6-6-6-6-6-6-6-6--2-2-2-2-2-2-2-2-2-2--4-4-4-4-4-4-4-4-|
A:-7-7-7-7-7-7-7-7-7-7-7---4-4-4-4-4-4-4-4-4-4-4--0-0-0-0-0-0-0-0-0-0--2-2-2-2-2-2-2-2-|
E:-------------------------------------------------------------------------------------|

e:-------------------------------------------------------------------------------------|
B:-------------------------------------------------------------------------------------|
G:-9-9-9-9-9-9-9-9-9-9-9---6-6-6-6-6-6-6-6-6-6-6--2-2-2-2-2-2-2-2-2-2--4-4-4-4-4-4-4-4-|
D:-9-9-9-9-9-9-9-9-9-9-9---6-6-6-6-6-6-6-6-6-6-6--2-2-2-2-2-2-2-2-2-2--4-4-4-4-4-4-4-4-|
A:-7-7-7-7-7-7-7-7-7-7-7---4-4-4-4-4-4-4-4-4-4-4--0-0-0-0-0-0-0-0-0-0--2-2-2-2-2-2-2-2-|
E:-------------------------------------------------------------------------------------|

e:-------|
B:-------|
G:-4-5-4-|
D:-4-5-4-|
A:-2-3-2-|
E:-------|

e:----------------------------------------------------------------------------------------|
B:----------------------------------------------------------------------------------------|
G:--------------------------------9-9-9-9-9-9-9-9--5-6-6-6-6-6-6-6------------------------|
D:-4-4-4-4-4-4-4--7-7-7-7-7-7-7---9-9-9-9-9-9-9-9--5-6-6-6-6-6-6-6--6-7-7-7-7-7-7-7--10--9|
A:-4-4-4-4-4-4-4--7-7-7-7-7-7-7---7-7-7-7-7-7-7-7--3-4-4-4-4-4-4-4--6-7-7-7-7-7-7-7--10--9|
E:-2-2-2-2-2-2-2--5-5-5-5-5-5-5-------------------------------------4-5-5-5-5-5-5-5--8---7|

e:--------------------------------------------|
B:--------------------------------------------|
G:-9-9-9-9-9-9-9-9-9-9-9-9-9-9-9--x-x-x-x-x-x-|
D:-9-9-9-9-9-9-9-9-9-9-9-9-9-9-9--x-x-x-x-x-x-|
A:-7-7-7-7-7-7-7-7-7-7-7-7-7-7-7--x-x-x-x-x-x-|
E:--------------------------------------------|

e:-------------------------------------------------------------------------------------|
B:-------------------------------------------------------------------------------------|
G:-9-9-9-9-9-9-9-9-9-9-9---6-6-6-6-6-6-6-6-6-6-6--2-2-2-2-2-2-2-2-2-2--4-4-4-4-4-4-4-4-|
D:-9-9-9-9-9-9-9-9-9-9-9---6-6-6-6-6-6-6-6-6-6-6--2-2-2-2-2-2-2-2-2-2--4-4-4-4-4-4-4-4-|
A:-7-7-7-7-7-7-7-7-7-7-7---4-4-4-4-4-4-4-4-4-4-4--0-0-0-0-0-0-0-0-0-0--2-2-2-2-2-2-2-2-|
E:-------------------------------------------------------------------------------------|

e:-------------------------------------------------------------------------------------|
B:-------------------------------------------------------------------------------------|
G:-9-9-9-9-9-9-9-9-9-9-9---6-6-6-6-6-6-6-6-6-6-6--2-2-2-2-2-2-2-2-2-2--4-4-4-4-4-4-4-4-|
D:-9-9-9-9-9-9-9-9-9-9-9---6-6-6-6-6-6-6-6-6-6-6--2-2-2-2-2-2-2-2-2-2--4-4-4-4-4-4-4-4-|
A:-7-7-7-7-7-7-7-7-7-7-7---4-4-4-4-4-4-4-4-4-4-4--0-0-0-0-0-0-0-0-0-0--2-2-2-2-2-2-2-2-|
E:-------------------------------------------------------------------------------------|

e:-------|
B:-------|
G:-4-5-4-|
D:-4-5-4-|
A:-2-3-2-|
E:-------|

e:----------------------------------------------------------------------------------|
B:----------------------------------------------------------------------------------|
G:--------------------------------9-9-9-9-9-9-9-9--5-6-6-6-6-6-6-6------------------|
D:-4-4-4-4-4-4-4--7-7-7-7-7-7-7---9-9-9-9-9-9-9-9--5-6-6-6-6-6-6-6--6-7-7-7-7-7-7-7-|
A:-4-4-4-4-4-4-4--7-7-7-7-7-7-7---7-7-7-7-7-7-7-7--3-4-4-4-4-4-4-4--6-7-7-7-7-7-7-7-|
E:-2-2-2-2-2-2-2--5-5-5-5-5-5-5-------------------------------------4-5-5-5-5-5-5-5-|


e:-----------------------------------|
B:-----------------------------------|
G:-----------------------------------|
D:-10-10-10-10-10-10-10--9-x-x-x-x-x-|
A:-10-10-10-10-10-10-10--9-x-x-x-x-x-|
E:-8--8--8--8--8--8--8---7-x-x-x-x-x-|


e:----------------------------------------------------|
B:----------------------------------------------------|
G:----------------------------------------------------|
D:-6-7-7-7-7-7-7-7--10-10-10-10-10-10-10--9-x-x-x-x-x-|
A:-6-7-7-7-7-7-7-7--10-10-10-10-10-10-10--9-x-x-x-x-x-|
E:-4-5-5-5-5-5-5-5--8--8--8--8--8--8--8---7-x-x-x-x-x-|

e:----------------------------------------------------|
B:----------------------------------------------------|
G:----------------------------------------------------|
D:-6-7-7-7-7-7-7-7--10-10-10-10-10-10-10--9-x-x-x-x-x-|
A:-6-7-7-7-7-7-7-7--10-10-10-10-10-10-10--9-x-x-x-x-x-|
E:-4-5-5-5-5-5-5-5--8--8--8--8--8--8--8---7-x-x-x-x-x-|

e:-------------------------|
B:-------------------------|
G:-------------------------|
D:-6-7-7-7-7-7-7-7--10---9-|
A:-6-7-7-7-7-7-7-7--10---9-|
E:-4-5-5-5-5-5-5-5--8----7-|

e:-----------------------------------|
B:-----------------------------------|
G:-9-9-9-9-9-9-9-9-9-9-9-9-9-9-9--9/-|
D:-9-9-9-9-9-9-9-9-9-9-9-9-9-9-9--9/-|
A:-7-7-7-7-7-7-7-7-7-7-7-7-7-7-7--7/-|
E:-----------------------------------|

hillo son mex

22/02/10





Comments


Popular The Creepshow tabs & chords
You'll Come Crawlin' Bass Tabs
Creatures Of The Night Chords
Dearly Departed Chords
Run For Your Life Tabs
Run For Your Life 1 Tabs
Run For Your Life 2 Tabs
Sell Your Soul Ukulele
Shake Ukulele
Sleep Tight Ukulele
The Garden Ukulele


Song lyrics



↑ Back to top | Tablatures and chords are parodies/interpretations of the original songs. You may use it for private study, scholarship, research or language learning purposes only
© 2014 AZChords.com Contact us | Privacy policy | DMCA | Add/correct tabs | Request tabs | Top 50 tabs