» » »

The Creepshow, The Garden Tabs (ver.1)

Artists:  A B C D E F G H I J K L M N O P Q R S T U V W X Y Z # 

The Garden Tabs (ver.1)

The Creepshow Tabs
Rating:
5/5 (1 vote)
Hard to play? Try these video lessons and learn fast.
                The Creepshow - The Garden 

Tuning: Eb Ab Db Gb Bb eb 

x = palm muted
/ = slide

listen to the song for the rhythm

Intro
-------------x-----------x-----------x-----------x-------------
eb|----------0-0-0000----0-0-0000----0-0-0000----0-0-0000------|
bb|----------1-1-1111----1-1-1111----1-1-1111----1-1-1111------|
gb|----------2-2-0000----2-2-0000----2-2-0000----2-2-0000------|  x2
Db|----------2-2-2222----2-2-2222----2-2-2222----2-2-2222------|  
Ab|---2/3-2----------------------------------------------------|
Eb|------------------------------------------------------------|

Verse 1
----------x---------x----------x----------x---------x---------x-----------x---------x---------
eb|-------0-0-0000--0-0-0000---0-0-0000---0-0-0000--1-1-1111--0-0-00------0-0-0000--0-0-0000--|
bb|-------1-1-1111--1-1-1111---0-0-0000---0-0-0000--3-3-3333--1-1-11------1-1-1111--1-1-1111--|
gb|-------2-2-2222--2-2-2222---0-0-0000---0-0-0000--2-2-2222--2-2-22------2-2-0000--2-2-0000--|
Db|-------2-2-2222--2-2-2222---2-2-2222---2-2-2222--0-0-0000--3-3-33------2-2-2222--2-2-2222--|  
Ab|-2/3-2----------------------2-2-2222---2-2-2222------------------2/3-2---------------------|
Eb|-------------------------------------------------------------------------------------------|

----------x---------x----------x----------x---------x---------x-----------x---------x-----------
eb|-------0-0-0000--0-0-0000---0-0-0000---0-0-0000--1-1-1111--0-0-00------0-0-0000--0-0-00------|
bb|-------1-1-1111--1-1-1111---0-0-0000---0-0-0000--3-3-3333--1-1-11------1-1-1111--1-1-11------|
gb|-------2-2-2222--2-2-2222---0-0-0000---0-0-0000--2-2-2222--2-2-22------2-2-0000--2-2-00------|
Db|-------2-2-2222--2-2-2222---2-2-2222---2-2-2222--0-0-0000--3-3-33------2-2-2222--2-2-22------|
Ab|----------------------------2-2-2222---2-2-2222------------------2/3-2-----------------2/3-2-|
Eb|---------------------------------------------------------------------------------------------|

-----x-----------x-----------
eb|--0-0-0000----0-0-00------|
bb|--1-1-1111----1-1-11------|
gb|--2-2-0000----2-2-00------|  
Db|--2-2-2222----2-2-22------|  
Ab|--------------------2/3-2-|
Eb|--------------------------|

----------x---------x----------x----------x---------x---------x-----------x---------x---------
eb|-------0-0-0000--0-0-0000---0-0-0000---0-0-0000--1-1-1111--0-0-00------0-0-0000--0-0-0000--|
bb|-------1-1-1111--1-1-1111---0-0-0000---0-0-0000--3-3-3333--1-1-11------1-1-1111--1-1-1111--|
gb|-------2-2-2222--2-2-2222---0-0-0000---0-0-0000--2-2-2222--2-2-22------2-2-0000--2-2-0000--|
Db|-------2-2-2222--2-2-2222---2-2-2222---2-2-2222--0-0-0000--3-3-33------2-2-2222--2-2-2222--|  
Ab|----------------------------2-2-2222---2-2-2222------------------2/3-2---------------------|
Eb|-------------------------------------------------------------------------------------------|

----------x---------x----------x----------x---------x---------x-----------x-------------       
eb|-------0-0-0000--0-0-0000---0-0-0000---0-0-0000--1-1-1111--0-0-00------0-0-0000000---|
bb|-------1-1-1111--1-1-1111---0-0-0000---0-0-0000--3-3-3333--1-1-11------1-1-1111111---|
gb|-------2-2-2222--2-2-2222---0-0-0000---0-0-0000--2-2-2222--2-2-22------2-2-2222222---|
Db|-------2-2-2222--2-2-2222---2-2-2222---2-2-2222--0-0-0000--3-3-33------2-2-2222222---|  
Ab|----------------------------2-2-2222---2-2-2222------------------2/3-2---------------|
Eb|-------------------------------------------------------------------------------------|

Chorus
    
eb|-3-3-3333333333--0-0-0000000000--0-0-0000000000--1-1-1111111111---|
bb|-1-1-1111111111--0-0-0000000000--1-1-1111111111--1-1-1111111111---|
gb|-0-0-0000000000--0-0-0000000000--2-2-2222222222--2-2-2222222222---|
Db|-2-2-2222222222--2-2-2222222222--2-2-2222222222--3-3-3333333333---|  
Ab|-3-3-3333333333--2-2-2222222222--0-0-0000000000--3-3-3333333333---|
Eb|-------------------------------------------------1-1-1111111111---|

eb|-3-3-3333333333--0-0-0000000000--0-0-0000000000--1-1-1111111111---|
bb|-1-1-1111111111--0-0-0000000000--1-1-1111111111--1-1-1111111111---|
gb|-0-0-0000000000--0-0-0000000000--2-2-2222222222--2-2-2222111111---|
Db|-2-2-2222222222--2-2-2222222222--2-2-2222222222--3-3-3333333333---|  
Ab|-3-3-3333333333--2-2-2222222222--0-0-0000000000--3-3-3333333333---|
Eb|-------------------------------------------------1-1-1111111111---|

Bridge
-------x-x---------x-x---------x-x---------x-x-----------
eb|----0-0-0000----0-0-0000----0-0-0000----0-0-0000------|
bb|----1-1-1111----1-1-1111----1-1-1111----1-1-1111------|
gb|----2-2-2222----2-2-2222----2-2-2222----2-2-2222------| 
Db|----2-2-2222----2-2-2222----2-2-2222----2-2-2222------|  
Ab|------------------------------------------------------|
Eb|------------------------------------------------------|


Verse 2
----------x---------x----------x----------x---------x---------x-----------x---------x---------
eb|-------0-0-0000--0-0-0000---0-0-0000---0-0-0000--1-1-1111--0-0-00------0-0-0000--0-0-0000--|
bb|-------1-1-1111--1-1-1111---0-0-0000---0-0-0000--3-3-3333--1-1-11------1-1-1111--1-1-1111--|
gb|-------2-2-2222--2-2-2222---0-0-0000---0-0-0000--2-2-2222--2-2-22------2-2-0000--2-2-0000--|
Db|-------2-2-2222--2-2-2222---2-2-2222---2-2-2222--0-0-0000--3-3-33------2-2-2222--2-2-2222--|  
Ab|--2/3-2---------------------2-2-2222---2-2-2222------------------2/3-2---------------------|
Eb|-------------------------------------------------------------------------------------------|

----------x---------x----------x----------x---------x---------x-----------x-------------       
eb|-------0-0-0000--0-0-0000---0-0-0000---0-0-0000--1-1-1111--0-0-00------0-0-0000000---|
bb|-------1-1-1111--1-1-1111---0-0-0000---0-0-0000--3-3-3333--1-1-11------1-1-1111111---|
gb|-------2-2-2222--2-2-2222---0-0-0000---0-0-0000--2-2-2222--2-2-22------2-2-2222222---|
Db|-------2-2-2222--2-2-2222---2-2-2222---2-2-2222--0-0-0000--3-3-33------2-2-2222222---|  
Ab|----------------------------2-2-2222---2-2-2222------------------2/3-2---------------|
Eb|-------------------------------------------------------------------------------------|

Chorus

eb|-3-3-3333333333--0-0-0000000000--0-0-0000000000--1-1-1111111111---|
bb|-1-1-1111111111--0-0-0000000000--1-1-1111111111--1-1-1111111111---|
gb|-0-0-0000000000--0-0-0000000000--2-2-2222222222--2-2-2222222222---|
Db|-2-2-2222222222--2-2-2222222222--2-2-2222222222--3-3-3333333333---|   --- 
Ab|-3-3-3333333333--2-2-2222222222--0-0-0000000000--3-3-3333333333---|      |
Eb|-------------------------------------------------1-1-1111111111---|      |- x2

eb|-3-3-3333333333--0-0-0000000000--0-0-0000000000--1-1-1111111111---|      |
bb|-1-1-1111111111--0-0-0000000000--1-1-1111111111--1-1-1111111111---|      |
gb|-0-0-0000000000--0-0-0000000000--2-2-2222222222--2-2-2222111111---|   ---
Db|-2-2-2222222222--2-2-2222222222--2-2-2222222222--3-3-3333333333---|  
Ab|-3-3-3333333333--2-2-2222222222--0-0-0000000000--3-3-3333333333---|
Eb|-------------------------------------------------1-1-1111111111---|

Outro

eb|-3-3-3333333333--0-0-0000000000--0-0-0000000000--1-1-1111111111---|
bb|-1-1-1111111111--0-0-0000000000--1-1-1111111111--1-1-1111111111---|
gb|-0-0-0000000000--0-0-0000000000--2-2-2222222222--2-2-2222111111---|
Db|-2-2-2222222222--2-2-2222222222--2-2-2222222222--3-3-3333333333---|  play till the end
Ab|-3-3-3333333333--2-2-2222222222--0-0-0000000000--3-3-3333333333---|
Eb|-------------------------------------------------1-1-1111111111---|


any corrections? --> then please comment
            

comments powered by Disqus
↑ Back to top | The Creepshow Tabs for The Garden. Lyrics for acoustic guitar and electric guitar. Tablatures and chords are parodies/interpretations of the original songs. You may use it for private study, scholarship, research or language learning purposes only