» » »

Shake Tabs (ver.1)

Artists:  A B C D E F G H I J K L M N O P Q R S T U V W X Y Z # 

Shake Tabs (ver.1)

The Creepshow
Rating:
5/5 (2 votes)

Hard to play? Try these video lessons and learn fast.
                

the creepshow








                2 times                                  
e:---------------------|
B:-9--9----------------|
G:-9--9--------5--5--4-|
D:-9--9--5--5--5--5--4-|
A:-7--7--5--5--3--3--2-|
E:-------3--3----------|

e:--------------------------------------------|
B:-9--9---------------------------------------|
G:-9--9--------5-5--4--2-2-2-2-2-2--4-4-4-4-4-|
D:-9--9--5--5--5-5--4--2-2-2-2-2-2--4-4-4-4-4-|
A:-7--7--5--5--3-3--2--0-0-0-0-0-0--2-2-2-2-2-|
E:-------3--3---------------------------------|


I love what you love, you love what I lack...
e:------------------------|
B:------------9p8---8p7---|
G:-9--9--x-x------9-----7-|
D:-9--9--x-x--------------|
A:-7--7--x-x--------------|
E:------------------------|

Hey there pretty boy don't walk away from me
‘Cause you know it just ain't right
You got me shakin' down to my knees
e:------------------------|
B:------------------------|
G:-9-9-9-9-9-9--6-6-5-5-5-|
D:-9-9-9-9-9-9--6-6-5-5-5-|
A:-7-7-7-7-7-7--4-4-3-3-3-|
E:------------------------|

And I'll never feel right until you're by my side
e:------------------------------|
B:------------------------------|
G:-9-9-9-9-9-9-9-9-9-9-9-9-9-9/-|
D:-9-9-9-9-9-9-9-9-9-9-9-9-9-9/-|
A:-7-7-7-7-7-7-7-7-7-7-7-7-7-7/-|
E:------------------------------|

  Can't shake you baby...
e:---------------------------------|
B:---------------------------------|
G:-2-2---2-2-2---2-2-2---2-2-2---2-|
D:-2-2-4-2-2-2-4-2-2-2-4-2-2-2-4-2-|
A:-0-0-0-0-0-0-0-0-0-0-0-0-0-0-0-0-|
E:---------------------------------|

  my spine...
e:--------------------------------------------|
B:--------------------------------------------|
G:--------------------------------------------|
D:-9-9--11-9--11--9-9--11-9--11--9-9--11-9-11-|
A:-7-7--7--7--7---7-7--7--7--7---7-7--7--7-7--|
E:--------------------------------------------|

Look over my way, you know I gotta make you...
e:---------------------------------|
B:---------------------------------|
G:-2-2---2-2-2---2-2-2---2-2-2---2-|
D:-2-2-4-2-2-2-4-2-2-2-4-2-2-2-4-2-|
A:-0-0-0-0-0-0-0-0-0-0-0-0-0-0-0-0-|
E:---------------------------------|

mine...  It's just a matter of time!
e:-------------------------------------------|
B:-------------------------------------------|
G:-------------------------------------------|
D:-4-4--6-4--6--4-4--6-4--4-4--6-4--4-4--6-4-|
A:-2-2--2-2--2--2-2--2-2--2-2--2-2--2-2--2-2-|
E:-------------------------------------------|

And I know (I know) you got it!...
e:---------------------------------------------|
B:---8-8-8-8-----------------------------------|
G:-9-9-9-9-9--------------5-5-5-5-5--4-4-4-4-4-|
D:-9-9-9-9-9---5-5-5-5-5--5-5-5-5-5--4-4-4-4-4-|
A:-7-7-7-7-7---5-5-5-5-5--3-3-3-3-3--2-2-2-2-2-|
E:-------------3-3-3-3-3-----------------------|

It makes me wanna scream
e:------------------------------------|
B:---8-8-8-8--------------------------|
G:-9-9-9-9-9--------------4-4-4-4-4-4-|
D:-9-9-9-9-9---5-5-5-5-5--4-4-4-4-4-4-|
A:-7-7-7-7-7---5-5-5-5-5--2-2-2-2-2-2-|
E:-------------3-3-3-3-3--------------|

And I know (I know) you got it!...
e:---------------------------------------------|
B:---8-8-8-8-----------------------------------|
G:-9-9-9-9-9--------------5-5-5-5-5--4-4-4-4-4-|
D:-9-9-9-9-9---5-5-5-5-5--5-5-5-5-5--4-4-4-4-4-|
A:-7-7-7-7-7---5-5-5-5-5--3-3-3-3-3--2-2-2-2-2-|
E:-------------3-3-3-3-3-----------------------|

It makes me wanna scream on you
e:-----------------------------------------------|
B:---8-8-8-8-------------------------------------|
G:-9-9-9-9-9--------------4-4-4-4-4---4---(4)/---|
D:-9-9-9-9-9---5-5-5-5-5--4-4-4-4-4---4---(4)/---|
A:-7-7-7-7-7---5-5-5-5-5--2-2-2-2-2---2---(2)/---|
E:-------------3-3-3-3-3-------------------------|

I love what you wear you hate when girls cry...
e:------------------------|
B:------------9p8---8p7---|
G:-9--9--x-x------9-----7-|
D:-9--9--x-x--------------|
A:-7--7--x-x--------------|
E:------------------------|

Walkin' down the street but I know he just ain't right...
e:------------------------|
B:------------------------|
G:-9-9-9-9-9-9--6-6-5-5-5-|
D:-9-9-9-9-9-9--6-6-5-5-5-|
A:-7-7-7-7-7-7--4-4-3-3-3-|
E:------------------------|

don't you think it's funny....
e:------------------------------|
B:------------------------------|
G:-9-9-9-9-9-9-9-9-9-9-9-9-9-9/-|
D:-9-9-9-9-9-9-9-9-9-9-9-9-9-9/-|
A:-7-7-7-7-7-7-7-7-7-7-7-7-7-7/-|
E:------------------------------|

Can't shake you baby...
e:---------------------------------|
B:---------------------------------|
G:-2-2---2-2-2---2-2-2---2-2-2---2-|
D:-2-2-4-2-2-2-4-2-2-2-4-2-2-2-4-2-|
A:-0-0-0-0-0-0-0-0-0-0-0-0-0-0-0-0-|
E:---------------------------------|

  my spine...
e:--------------------------------------------|
B:--------------------------------------------|
G:--------------------------------------------|
D:-9-9--11-9--11--9-9--11-9--11--9-9--11-9-11-|
A:-7-7--7--7--7---7-7--7--7--7---7-7--7--7-7--|
E:--------------------------------------------|

Look over my way, you know I gotta make you 
e:---------------------------------|
B:---------------------------------|
G:-2-2---2-2-2---2-2-2---2-2-2---2-|
D:-2-2-4-2-2-2-4-2-2-2-4-2-2-2-4-2-|
A:-0-0-0-0-0-0-0-0-0-0-0-0-0-0-0-0-|
E:---------------------------------|

mine...  It's just a matter of time!
e:-------------------------------------------|
B:-------------------------------------------|
G:-------------------------------------------|
D:-4-4--6-4--6--4-4--6-4--4-4--6-4--4-4--6-4-|
A:-2-2--2-2--2--2-2--2-2--2-2--2-2--2-2--2-2-|
E:-------------------------------------------|

And I know (I know) you got it!...
e:---------------------------------------------|
B:---8-8-8-8-----------------------------------|
G:-9-9-9-9-9--------------5-5-5-5-5--4-4-4-4-4-|
D:-9-9-9-9-9---5-5-5-5-5--5-5-5-5-5--4-4-4-4-4-|
A:-7-7-7-7-7---5-5-5-5-5--3-3-3-3-3--2-2-2-2-2-|
E:-------------3-3-3-3-3-----------------------|

It makes me wanna scream on you
e:-----------------------------------------------|
B:---8-8-8-8-------------------------------------|
G:-9-9-9-9-9--------------4-4-4-4-4---4---(4)/---|
D:-9-9-9-9-9---5-5-5-5-5--4-4-4-4-4---4---(4)/---|
A:-7-7-7-7-7---5-5-5-5-5--2-2-2-2-2---2---(2)/---|
E:-------------3-3-3-3-3-------------------------|

e:----------------------------------|
B:-x-x-x-x--------------------------|
G:-x-x-x-x--9--9--9-9--9--9--8--8-8-|
D:-x-x-x-x--x--x--x-x--x--x--x--x-x-|
A:-x-x-x-x--7--7--7-7--7--7--6--6-6-|
E:----------------------------------|

e:--------------------------|
B:--------------------------|
G:--9--9--9-9--9--9--8--8-8-|
D:--x--x--x-x--x--x--x--x-x-|
A:--7--7--7-7--7--7--6--6-6-|
E:--------------------------|

e:------------------------|
B:------------------------|
G:--9--9--12-12--11-11-11-|
D:--x--x--x--x---x--x--x--|
A:--7--7--10-10--9--9--9--|
E:------------------------|

                         3x
e:---------------------------|
B:---------------------------|
G:-9--9-9-9-9-9-9--9--8--8-8-|
D:-x--x-x-x-x-x-x--x--x--x-x-|
A:-7--7-7-7-7-7-7--7--6--6-6-|
E:---------------------------|

e:------------------------------|
B:------------------------------|
G:-9-9-9-9-9--12-12--11-11-11-9-|
D:-x-x-x-x-x--x--x---x--x--x--x-|
A:-7-7-7-7-7--10-10--9--9--9--7-|
E:------------------------------|

So where are you at...
e:------|
B:------|
G:-9--9-|
D:-9--9-|
A:-7--7-|
E:------|

e:-------------|
B:-------------|
G:-x-x-x-x-x-x-|
D:-x-x-x-x-x-x-|
A:-x-x-x-x-x-x-|
E:-------------|

  Can't shake you baby...
e:---------------------------------|
B:---------------------------------|
G:-2-2---2-2-2---2-2-2---2-2-2---2-|
D:-2-2-4-2-2-2-4-2-2-2-4-2-2-2-4-2-|
A:-0-0-0-0-0-0-0-0-0-0-0-0-0-0-0-0-|
E:---------------------------------|

  my spine...
e:--------------------------------------------|
B:--------------------------------------------|
G:--------------------------------------------|
D:-9-9--11-9--11--9-9--11-9--11--9-9--11-9-11-|
A:-7-7--7--7--7---7-7--7--7--7---7-7--7--7-7--|
E:--------------------------------------------|

Look over my way, you know I gotta make you...
e:---------------------------------|
B:---------------------------------|
G:-2-2---2-2-2---2-2-2---2-2-2---2-|
D:-2-2-4-2-2-2-4-2-2-2-4-2-2-2-4-2-|
A:-0-0-0-0-0-0-0-0-0-0-0-0-0-0-0-0-|
E:---------------------------------|

mine...  It's just a matter of time!
e:-------------------------------------------|
B:-------------------------------------------|
G:-------------------------------------------|
D:-4-4--6-4--6--4-4--6-4--4-4--6-4--4-4--6-4-|
A:-2-2--2-2--2--2-2--2-2--2-2--2-2--2-2--2-2-|
E:-------------------------------------------|

And I know (I know) you got it!...
e:---------------------------------------------|
B:---------------------------------------------|
G:------------------------5-5-5-5-5--4-4-4-4-4-|
D:-------------5-5-5-5-5--5-5-5-5-5--4-4-4-4-4-|
A:-------------5-5-5-5-5--3-3-3-3-3--2-2-2-2-2-|
E:-------------3-3-3-3-3-----------------------|

It makes me wanna scream
e:------------------------------------|
B:---8-8-8-8--------------------------|
G:-9-9-9-9-9--------------4-4-4-4-4-4-|
D:-9-9-9-9-9---5-5-5-5-5--4-4-4-4-4-4-|
A:-7-7-7-7-7---5-5-5-5-5--2-2-2-2-2-2-|
E:-------------3-3-3-3-3--------------|

e:---------------------------------------------|
B:---8-8-8-8-----------------------------------|
G:-9-9-9-9-9--------------5-5-5-5-5--4-4-4-4-4-|
D:-9-9-9-9-9---5-5-5-5-5--5-5-5-5-5--4-4-4-4-4-|
A:-7-7-7-7-7---5-5-5-5-5--3-3-3-3-3--2-2-2-2-2-|
E:-------------3-3-3-3-3-----------------------|

e:------------------------------------|
B:---8-8-8-8--------------------------|
G:-9-9-9-9-9--------------4-4-4-4-4-4-|
D:-9-9-9-9-9---5-5-5-5-5--4-4-4-4-4-4-|
A:-7-7-7-7-7---5-5-5-5-5--2-2-2-2-2-2-|
E:-------------3-3-3-3-3--------------|

You make me wanna scream!
e:---------------------|
B:-9--9----------------|
G:-9--9--------5--5--4-|
D:-9--9--5--5--5--5--4-|
A:-7--7--5--5--3--3--2-|
E:-------3--3----------|

e:-------------------------------------|
B:-9--9--------------------------------|
G:-9--9--------5-5--4--2-2-2-2-2-2--4--|
D:-9--9--5--5--5-5--4--2-2-2-2-2-2--4--|
A:-7--7--5--5--3-3--2--0-0-0-0-0-0--2--|
E:-------3--3--------------------------|

e:-----------0---|
B:---------0-----|
G:-------0-------|
D:-----2---------|
A:---2-----------|
E:-0-------------|


hillo son mex

22/02/09
            
Hard to play? Try these video lessons and learn fast. | Correct




comments powered by Disqus
↑ Back to top | Tablatures and chords are parodies/interpretations of the original songs. You may use it for private study, scholarship, research or language learning purposes only