» » »

The Creepshow, Run For Your Life Tabs (ver.4)

Artists:  A B C D E F G H I J K L M N O P Q R S T U V W X Y Z # 

Run For Your Life Tabs (ver.4)

The Creepshow Tabs
 Rating:
4/5 (4 votes)
Run For Your Life lessons Tabs too difficult? Try these video lessons and learn fast
1
                The Creepshow - Run for your life 

Tuning: Eb Ab Db gb bb eb 

..  = palm muted
->- = slide
~   = ring

listen to the song for the exact rhythm


  |P.M.............................................|
eb|------------------------------------------------|
bb|------------------------------------------------|
gb|------------------------------------------------|
Db|---------------99998888877777777999988888-------|  
Ab|77771010101010-77776666655555555777766666-------|
Eb|5555-8-8-8-8-8----------------------------------|

  |P.M................................       
eb|------------------------------------------------|
bb|------------------------------------------------|
gb|------------------------------------------------|
Db|---------------99998888877777777999988888-------|  
Ab|77771010101010-77776666655555555777766666-------|
Eb|5555-8-8-8-8-8----------------------------------|

eb|-----------------------------|
bb|-----------------------------|
gb|---5->-7->-5->-8->-5->-7->-5-| x3
Db|77-x->-x->-x->-x->-x->-x->-x-|
Ab|77-3->-5->-3->-6->-3->-5->-3-|
Eb|75---------------------------|

eb|-----|
bb|-----|
gb|-----|
Db|7~ --|
Ab|7~ --|
Eb|5~ --|

eb|-----------------------------|
bb|-----------------------------|
gb|---5->-7->-5->-8->-5->-7->-5-| x3
Db|77-x->-x->-x->-x->-x->-x->-x-|
Ab|77-3->-5->-3->-6->-3->-5->-3-|
Eb|55---------------------------|

eb|----------------------|
bb|----------------------|
gb|-5-5-5-5-8-8-7-8-7-6--|
Db|-5-5-5-5-8-8-7-8-7-7--|
Ab|-3-3-3-3-6-6-5-6-5-7--|
Eb|-------------------5--|

eb|-----------------------------------------------------------------------|
bb|-----------4->-6-------------------------------------------------------|
gb|-4->-6-----5->-7----2222----------6---4->-6-----22222222---------------|
Db|-5->-7-----5->-7----3333--2-2-2-2-7---5->-7-----32222222-22222222------|
Ab|-5->-7-----3->-5----3333--2-2-2-2-7---5->-7-----33333333-22222222------|
Eb|-3->-5--------------1111--0-0-0-0-5---3->-5-----11111111-00000000------|

eb|------------------------------------|
bb|--6~ ---1~ ---------6~ -------------|
gb|--7~ ---2~ ---------7~ -------------|
Db|--7~ ---2~ ---------7~ ---2-222222--|
Ab|--5~ ---------------5~ ---2-222222--| 
Eb|--------------------------0-000000--|

eb|------------------------------------------|
bb|------------------------------------------|
gb|--6---9----10---9--------6---9----7---9---| here are just the chords -> listen to the song
Db|--7---10---10---9--------7---10---7---9---|
Ab|--7---10---8----7--------7---10---5---7---|
Eb|--5---8----8----7--------5---8----5---7---|

eb|-----------------------------|
bb|-----------------------------|
gb|---5->-7->-5->-8->-5->-7->-5-| x3
Db|77-x->-x->-x->-x->-x->-x->-x-|
Ab|77-3->-5->-3->-6->-3->-5->-3-|
Eb|55---------------------------|

eb|----------------------|
bb|----------------------|
gb|-5-5-5-5-8-8-7-8-7-6--|
Db|-5-5-5-5-8-8-7-8-7-7--|
Ab|-3-3-3-3-6-6-5-6-5-7--|
Eb|-------------------5--|

eb|-----------------------------------------------------------------------|
bb|-----------4->-6-------------------------------------------------------|
gb|-4->-6-----5->-7----2222----------6---4->-6-----22222222---------------|
Db|-5->-7-----5->-7----3333--2-2-2-2-7---5->-7-----32222222-22222222------|
Ab|-5->-7-----3->-5----3333--2-2-2-2-7---5->-7-----33333333-22222222------|
Eb|-3->-5--------------1111--0-0-0-0-5---3->-5-----11111111-00000000------|  
     
eb|---------------------------------|
bb|--6~---1~---------6~-------------|
gb|--7~---2~---------7~-------------|
Db|--7~---2~---------7~---2-222222--|
Ab|--5~----- --------5~---2-222222--| 
Eb|-----------------------0-000000--|

eb|------------------------------------------|
bb|------------------------------------------|
gb|--6---9----10---9--------6---9----7---9---| here are just the chords -> listen to the song
Db|--7---10---10---9--------7---10---7---9---|
Ab|--7---10---8----7--------7---10---5---7---|
Eb|--5---8----8----7--------5---8----5---7---|

eb|---------------------|
bb|----------4444-------|
gb|--2222222255554444---| x3
Db|--3333333355555555---| 
Ab|--3333333333335555---|
Eb|--11111111----3333---|

eb|--------------0~ -|
bb|--------------0~ -|
gb|--22222222----0~ -|
Db|--33333333-2~ ----| 
Ab|--33333333-2~ ----|
Eb|--11111111-0~ ----|

  |P.M.............................................|
eb|------------------------------------------------|
bb|------------------------------------------------|
gb|------------------------------------------------|
Db|---------------99998888877777777999988888-------|  
Ab|77771010101010-77776666655555555777766666-------|
Eb|5555-8-8-8-8-8----------------------------------|

  |  .......................................       
eb|------------------------------------------------|
bb|------------------------------------------------|
gb|------------------------------------------------|
Db|---------------99998888877777777999988888-------|  
Ab|77771010101010-77776666655555555777766666-------|
Eb|5555-8-8-8-8-8----------------------------------|

  |  ..   .................   .....
eb|--------------------------------------------|
bb|--------------------------------------------|
gb|--------------------------------------------|
Db|---------------9999888887777777799998-------|  
Ab|77771010101010-7777666665555555577776-------|
Eb|5555-8-8-8-8-8------------------------------|

eb|------------------------------------------|
bb|------------------------------------------|
gb|--6---9----10---9--------6---9----7---9---| x2 here are just the chords -> listen to the song
Db|--7---10---10---9--------7---10---7---9---|
Ab|--7---10---8----7--------7---10---5---7---|
Eb|--5---8----8----7--------5---8----5---7---|

eb|-----------------------------|
bb|-----------------------------|
gb|---5->-7->-5->-8->-5->-7->-5-| x3
Db|77-x->-x->-x->-x->-x->-x->-x-|
Ab|77-3->-5->-3->-6->-3->-5->-3-|
Eb|75---------------------------|

eb|---|---|
bb|---|---|
gb|6--|6--|
Db|7--|7--|
Ab|7--|7--|
Eb|5--|5--|

any corrections? --> then please comment 
please let me know what you think
            
Submit corrections

comments powered by Disqus
↑ Back to top | The Creepshow Tabs for Run For Your Life. Lyrics for acoustic guitar and electric guitar. 1 Tablatures and chords are parodies/interpretations of the original songs. You may use it for private study, scholarship, research or language learning purposes only