» » »

Time Is Ticking Out Tabs (ver.1)

Artists:  A B C D E F G H I J K L M N O P Q R S T U V W X Y Z # 

Time Is Ticking Out Tabs (ver.1)

Cranberries
Rating:
0/5 (0 votes)

Hard to play? Try these video lessons and learn fast.
                Tuning: Standard.
The song is pretty good and easy, listen the song and you'll follow the rhythm.

Intro:
e----2--2----3--3---------------------||
b---3-3-----3-3-----------------------||
g--2---2---0---0---x2-----------------||
d-0-------0---------------------------||
a-------------------------------------||
e-------------------------------------||


Verse: first clean normal and after faster
e-2-----2-------------------------------||
b-3--x3-3--x3 down and x1 up------------||
g-4-----4-------------------------------||
d-4-----4-------------------------------||
a-2-----x-------------------------------||
e-2-----x-------------------------------||


Bridge: ''we don't know,...''
e-----2---2----3--3-----------------------||
b---3---3-----3-3-------------------------||
g---2----2---0---0-----------------------||
d-0-0-------0----------------------------||
a-------------------------------------||
e-------------------------------------||

Chorus:''for me love is all,...''

  D  G repeated through the whole chorus
e-2--3----------------------------------||
b-3--3----------------------------------||
g-2--0----------------------------------||
d-0--0----------------------------------||
a-x--2----------------------------------||
e-x--3----------------------------------||



Guitar 2 (light distortion) played over chorus second part.
with some wah wah.
e------------------------------------------||
b------------------------------------------||
g------------------------------------------||
d-9-7-5-4-----9-7-4-5~/12-9-7-5~--12-9-7-5-||
a------------------------------------------||
e------------------------------------------||


Bridge 2:'' I need oxygen,....''
guitar 2:
e--------------------------------------------------------||
b--------------------------------------------------------||
g--------------------------------------------------------||
d-5/--16-16-15-14-14h15-15-17-16-14-16-16-15-14-14h15-15-||
a--------------------------------------------------------||
e--------------------------------------------------------||


Guitar 2: End
e-------------------------------------||
b-------------------------------------||
g-------------------------------------||
d-12-9-7-5~--12-9-7-5~-5/9~-----------||
a-------------------------------------||
e-------------------------------------||

song form:
Intro
Verse
Bridge
Verse
Bridge
Verse
Bridge
Verse
Bridge x2
Chorus & Guitar 2
Verse
Verse
Bridge
Verse
Bridge x 2
Chorus & Guitar 2
Chorus & Bridge 2
Chorus & Guitar 2 end.

Enjoy it!
Please vote for the song.
            
Hard to play? Try these video lessons and learn fast. | Correct




comments powered by Disqus
↑ Back to top | Tablatures and chords are parodies/interpretations of the original songs. You may use it for private study, scholarship, research or language learning purposes only