» » »

The Courteeners, Why Do You Do It Tabs (ver.1)

Artists:  A B C D E F G H I J K L M N O P Q R S T U V W X Y Z # 

Why Do You Do It Tabs (ver.1)

The Courteeners Tabs
 Rating:
4/5 (4 votes)
Why Do You Do It lessons Tabs too difficult? Try these video lessons and learn fast
1
                *Updated*

Liam used to play this when he was solo, before the Courteeners. He might have 
played it in his own section at Courteeners gigs early on, but i'm not sure. 
The Bside to Take Over the World is played open, as standard, possibly with a 12 string acoustic.

Chords

C, Fmaj7, G*, Am, G, F,


Intro & Verses:

  C       Fmaj7            C         Fmaj7            C
-----0---------0------------------0--------0--------------------|
--1---1-----1---1---------- 1111---1----1---1------------1111---|
-------0----2----2------------------0---2----2------------------|
--2-----2---3-----3-------- 2222-----2--3-----3--3 s 5---2222---| x2
--3------------------3-2--- 3333-------------------------3333---|
--------------------3---3---------------------------------------|

  C       Fmaj7            C        Fmaj7            C
-----0---------0------------------0--------0-----------------------|
--1---1-----1---1---------- 1111---1----1---1---------------1111---|
-------0----2----2------------------0---2----2---------------------|
--2-----2---3-----3-------- 2222-----2--3-----3--3 s 5------2222---| x2
--3------------------3-2--- 3333----------------------------3333---|
--------------------3---3------------------------------------------|

Why do you do it,                   Why do you do it, do it to me


Am               G             F                    C
The butterfly lights are on, but they're getting dimmer
Am                  G             F                    C
And i'm slightly concerned about your frame, is pale and your getting thinner
Am                     G                    F                      C
I'm sick of you turning up and people saying  that you shouldn't have come
F                                                    G
Instead they're realising the 1, 2 or 3 nice things 


-5--3--1--0---------------|
-------------1------------|
--------------------------|
-------------2------------|
-------------3------------|
--------------------------|

C       Fmaj7            C        Fmaj7            C
-----0---------0------------------0--------0-----------------------|
--1---1-----1---1---------- 1111---1----1---1---------------1111---|
-------0----2----2------------------0---2----2---------------------|
--2-----2---3-----3-------- 2222-----2--3-----3--3 s 5------2222---| x2
--3------------------3-2--- 3333----------------------------3333---|
--------------------3---3------------------------------------------|

Why do you do it,                   Why do you do it, do it to me


Verse 2

All of your friends have got these dark unsighlty rings around their eyes
and I suppose you think that's fashionable but that's no surprise
just look after yourself darling for a weekend is all I ask
and I swear that if you do I'll pick you up with a picnic, apples cake and flask

Outro:

C       Fmaj7            C        Fmaj7            C
-----0---------0------------------0--------0-----------------------|
--1---1-----1---1---------- 1111---1----1---1---------------1111---|
-------0----2----2------------------0---2----2---------------------|
--2-----2---3-----3-------- 2222-----2--3-----3--3 s 5------2222---| x2
--3------------------3-2--- 3333----------------------------3333---|
--------------------3---3------------------------------------------|

Why do you do it,                   Why do you do it, do it to me


C       Fmaj7            C        Fmaj7            C
-----0---------0------------------0--------0-----------------------|
--1---1-----1---1---------- 1111---1----1---1---------------1------|
-------0----2----2------------------0---2----2---------------------|
--2-----2---3-----3-------- 2222-----2--3-----3--3 s 5------2------| x2
--3------------------3-2--- 3333----------------------------3------|
--------------------3---3------------------------------------------|
            
Submit corrections

comments powered by Disqus
↑ Back to top | The Courteeners Tabs for Why Do You Do It. Lyrics for acoustic guitar and electric guitar. 1 Tablatures and chords are parodies/interpretations of the original songs. You may use it for private study, scholarship, research or language learning purposes only