» » »

The Courteeners, No You Didn't, No You Don't Tabs (ver.1)

Artists:  A B C D E F G H I J K L M N O P Q R S T U V W X Y Z # 

No You Didn't, No You Don't Tabs (ver.1)

The Courteeners Tabs
 Rating:
4/5 (4 votes)
No You Didn't, No You Don't lessons Tabs too difficult? Try these video lessons and learn fast
1
                
tuning: stanadard EADGBe

intro

e----5--------2---------4-----7--7-7-|
B----5--------2---------5-----9--9-9-|
G--6---6----2---2-----6---6---7--7-7-|
D-7-----7--4-----4-4h6-----6--9--9-9-|
A------------------------------------|
E------------------------------------|

e----5--------2---------4-----7r-|
B----5--------2---------5-----9r-|
G--8---8----2---2-----6---6---7r-|
D-7-----7--4-----4-4h6-----6--9r-|
A--------------------------------|
E--------------------------------|

verse

1st guitar

e-7-7-7--5----------|      e------------------------|
B-9-9-9--7--7--5----|      B---5---7---9--9---------|
G-----------9--7----|  x3  G-6---6---6------7-7-7-6-| x3
D-------------------|      D------------------------|
A-------------------|      A------------------------|
E-------------------|      E------------------------|

e-----------------------------------------------------------|
B---5---7---9--9---------9-10-9-9-9-10-9-9-9-10-9-7---------|
G-6---6---6------7-7-7-6----------------------------9-7-----|
D-------------------------------------------------------11-9|
A-----------------------------------------------------------|
E-----------------------------------------------------------|

2ndguitar

e-5-x-5-5-5-xx-2-x-2-2-2-xx-4-x-4-4-4-xx-7-x-7-7-7-xx-|
B-5-x-5-5-5-xx-2-x-2-2-2-xx-5-x-5-5-5-xx-9-x-9-9-9-xx-|
G-6-x-6-6-6-xx-2-x-2-2-2-xx-6-x-6-6-6-xx-7-x-7-7-7-xx-| x 7
D-7-x-7-7-7-xx-4-x-4-4-4-xx-6-x-6-6-6-xx-9-x-9-9-9-xx-|
A-----------------------------------------------------|
E-----------------------------------------------------|

e-5-x-5-5-5-xx-2-x-2-2-2-xx-4-x-4-4-4-xx-777777777777777|
B-5-x-5-5-5-xx-2-x-2-2-2-xx-5-x-5-5-5-xx-999999999999999|
G-6-x-6-6-6-xx-2-x-2-2-2-xx-6-x-6-6-6-xx-777777777777777|
D-7-x-7-7-7-xx-4-x-4-4-4-xx-6-x-6-6-6-xx-999999999999999|
A-------------------------------------------------------|
E-------------------------------------------------------|


chorus

1st guitar

e---------------------------|
B-5-x-5--7-x-7--9-x-9-9-9-9-|
G-6-x-6--6-x-6--9-x-9-9-9-9-| x3
D---------------------------|
A---------------------------|
E---------------------------|

2nd guitar

e-5-x-5-5-5-xx-2-x-2-2-2-xx-4-x-4-4-4-xx-7-x-7-7-7-xx-|
B-5-x-5-5-5-xx-2-x-2-2-2-xx-5-x-5-5-5-xx-9-x-9-9-9-xx-|
G-6-x-6-6-6-xx-2-x-2-2-2-xx-6-x-6-6-6-xx-7-x-7-7-7-xx-| x 4
D-7-x-7-7-7-xx-4-x-4-4-4-xx-6-x-6-6-6-xx-9-x-9-9-9-xx-|
A-----------------------------------------------------|
E-----------------------------------------------------|

post chorus

1st guitar

e--------------------------|
B-5-5---7-7---9-9--9-------|
G-6-6---6-6---9-9----7-6---|
D------------------------9-|
A--------------------------|
E--------------------------|

2nd guitar

e-5-5---2-2---4-4---7-7-7-7-|
B-5-5---2-2---5-5---9-9-9-9-|
G-6-6---2-2---6-6---7-7-7-7-| x2
D-7-7---4-4---6-6---9-9-9-9-|
A---------------------------|
E---------------------------|

solo

1st guitar

e-9-77-77-9-77-77-9-77-77-9-7---7-9-77-77-9-|
B-----------------------------8-------------|
G-------------------------------------------|
D-------------------------------------------|
A-------------------------------------------|
E-------------------------------------------|

2nd guitar

e-5-x-5-5-5-xx-2-x-2-2-2-xx-4-x-4-4-4-xx-7-x-7-7-7-xx-|
B-5-x-5-5-5-xx-2-x-2-2-2-xx-5-x-5-5-5-xx-9-x-9-9-9-xx-|
G-6-x-6-6-6-xx-2-x-2-2-2-xx-6-x-6-6-6-xx-7-x-7-7-7-xx-| x 2
D-7-x-7-7-7-xx-4-x-4-4-4-xx-6-x-6-6-6-xx-9-x-9-9-9-xx-|
A-----------------------------------------------------|
E-----------------------------------------------------|



verse

1st guitar

1st guitar

e------------------------|
B---5---7---9--9---------|
G-6---6---6------7-7-7-6-| x7
D------------------------|
A------------------------|
E------------------------|

e-----------------------------------------------------------|
B---5---7---9--9---------9-10-9-9-9-10-9-9-9-10-9-7---------|
G-6---6---6------7-7-7-6----------------------------9-7-----|
D-------------------------------------------------------11-9|
A-----------------------------------------------------------|
E-----------------------------------------------------------|

2ndguitar

e-5-x-5-5-5-xx-2-x-2-2-2-xx-4-x-4-4-4-xx-7-x-7-7-7-xx-|
B-5-x-5-5-5-xx-2-x-2-2-2-xx-5-x-5-5-5-xx-9-x-9-9-9-xx-|
G-6-x-6-6-6-xx-2-x-2-2-2-xx-6-x-6-6-6-xx-7-x-7-7-7-xx-| x 7
D-7-x-7-7-7-xx-4-x-4-4-4-xx-6-x-6-6-6-xx-9-x-9-9-9-xx-|
A-----------------------------------------------------|
E-----------------------------------------------------|

e-5-x-5-5-5-xx-2-x-2-2-2-xx-4-x-4-4-4-xx-777-777-777|
B-5-x-5-5-5-xx-2-x-2-2-2-xx-5-x-5-5-5-xx-999-999-999|
G-6-x-6-6-6-xx-2-x-2-2-2-xx-6-x-6-6-6-xx-777-777-777|
D-7-x-7-7-7-xx-4-x-4-4-4-xx-6-x-6-6-6-xx-999-999-999|
A---------------------------------------------------|
E---------------------------------------------------|


chorus

1st guitar

e---------------------------|
B-5-x-5--7-x-7--9-x-9-9-9-9-|
G-6-x-6--6-x-6--9-x-9-9-9-9-| x3
D---------------------------|
A---------------------------|
E---------------------------|

2nd guitar

e-5-x-5-5-5-xx-2-x-2-2-2-xx-4-x-4-4-4-xx-7-x-7-7-7-xx-|
B-5-x-5-5-5-xx-2-x-2-2-2-xx-5-x-5-5-5-xx-9-x-9-9-9-xx-|
G-6-x-6-6-6-xx-2-x-2-2-2-xx-6-x-6-6-6-xx-7-x-7-7-7-xx-| x 4
D-7-x-7-7-7-xx-4-x-4-4-4-xx-6-x-6-6-6-xx-9-x-9-9-9-xx-|
A-----------------------------------------------------|
E-----------------------------------------------------|


post chorus

1st guitar

e--------------------------|
B-5-5---7-7---9-9--9-------|
G-6-6---6-6---9-9----7-6---|
D------------------------9-|
A--------------------------|
E--------------------------|

2nd guitar

e-5-5---2-2---4-4---7-7-7-7-|
B-5-5---2-2---5-5---9-9-9-9-|
G-6-6---2-2---6-6---7-7-7-7-| x2
D-7-7---4-4---6-6---9-9-9-9-|
A---------------------------|
E---------------------------|



bridge

1st guitar

e------------9----9-----------------|
B---7---7------10--10---7----7----5-|
G-----7---7--9---9--------7----7----|
D-7-----7-------------7-----7-----2-|
A-----------------------------------|
E-----------------------------------|

e-------------|
B-7-7--8-9-10-|
G-------------|
D-4-4--5-6-7--|
A-------------|
E-------------|

e-9\-9-9-9-9--|
B-10\10101010-|
G-9\-9-9-9-9--|
D-------------|
A-------------|
E-------------|

e----------------------------|
B----------------------------|
G-------------------6-7-7h6--| x4
D-2/7-7--7-7--7-7--7---------|
A----------------------------|
E----------------------------|

2nd guitar

e-12-(8 times) 9 (8 times)---------------------------| 
B-------------------------10 (8 times)--12 (8 times)-|
G----------------------------------------------------|
D----------------------------------------------------| x2
A----------------------------------------------------|
E----------------------------------------------------|

1st guitar

e------------------------|
B---5---7---9--9---------|
G-6---6---6------7-7-7-6-| 
D------------------------|
A------------------------|
E------------------------|

e-----------------------------------------------------------|
B---5---7---9--9---------9-10-9-9-9-10-9-9-9-10-9-7---------|
G-6---6---6------7-7-7-6----------------------------9-7-----|
D-------------------------------------------------------11-9|
A-----------------------------------------------------------|
E-----------------------------------------------------------|

chorus

1st guitar

e---------------------------|
B-5-x-5--7-x-7--9-x-9-9-9-9-|
G-6-x-6--6-x-6--9-x-9-9-9-9-| x3
D---------------------------|
A---------------------------|
E---------------------------|

2nd guitar

e-5-x-5-5-5-xx-2-x-2-2-2-xx-4-x-4-4-4-xx-7-x-7-7-7-xx-|
B-5-x-5-5-5-xx-2-x-2-2-2-xx-5-x-5-5-5-xx-9-x-9-9-9-xx-|
G-6-x-6-6-6-xx-2-x-2-2-2-xx-6-x-6-6-6-xx-7-x-7-7-7-xx-| x 4
D-7-x-7-7-7-xx-4-x-4-4-4-xx-6-x-6-6-6-xx-9-x-9-9-9-xx-|
A-----------------------------------------------------|
E-----------------------------------------------------|


post chorus

1st guitar

e--------------------------|
B-5-5---7-7---9-9--9-------|
G-6-6---6-6---9-9----7-6---|
D------------------------9-|
A--------------------------|
E--------------------------|

2nd guitar

e-5-5---2-2---4-4---7-7-7-7-|
B-5-5---2-2---5-5---9-9-9-9-|
G-6-6---2-2---6-6---7-7-7-7-| x2
D-7-7---4-4---6-6---9-9-9-9-|
A---------------------------|
E---------------------------|

last chord

e--5--|
B--5--|
G--6--|
D--7--|
A-----|
E-----|


         there are some variotions and pauses but no other chords are used

                         mint song. mint band
            
Submit corrections

comments powered by Disqus
↑ Back to top | The Courteeners Tabs for No You Didn't, No You Don't. Lyrics for acoustic guitar and electric guitar. 1 Tablatures and chords are parodies/interpretations of the original songs. You may use it for private study, scholarship, research or language learning purposes only