» » »

The Courteeners, If It Wasn't For Me Tabs (ver.1)

Artists:  A B C D E F G H I J K L M N O P Q R S T U V W X Y Z # 

If It Wasn't For Me Tabs (ver.1)

The Courteeners Tabs
Rating:
0/5 (0 votes)
If It Wasn't For Me lessons Tabs too difficult? Try these video lessons and learn fast
                The Courteeners - If It Wasn't For Me



Tuning: Standard


Intro: Guitar 1 (x2)

e|---------------------------------------------------------------------------|
B|--14-14-14-14-14-12-----14-14-14-14-14-12-----14-14-14-14-14-12------------|
G|-------------------13--------------------13--------------------13--14-16---|
D|---------------------------------------------------------------------------|
A|---------------------------------------------------------------------------|
E|---------------------------------------------------------------------------|


Intro/Verse: Guitar 2

e|--------------------------------------------------------------------------|
B|--------------------------------------------------------------------------|
G|--666---------------------------------------------------------------------|
D|--666--9--(x3)-then on fourth--7-9----------------------------------------|
A|--444--9-----------------------7-9----------------------------------------|
E|-------7-----------------------5-7----------------------------------------|

I Only Figured Out The Intro For Guitar 1 So The Rest Is All Guitar 2

Chorus: Guitar 2

e|---------------------------------------------------------------------------|
B|---------------------------------------------------------------------------|
G|---1111----------666-------------------------------------------------------|
D|---2222---9999---666---7---9----(x2)- then----5~-9~--5~-9~-----------------|
A|---2222---9999---444---7---9------------------5~-9~--5~-9~-----------------|
E|----------7777-------- 5-- 7------------------7~-7~--7~-7~-----------------|

Outro: Guitar 2 Chorus again x2 then:

e|---------------------------------------------------------------------------|
B|---------------------------------------------------------------------------|
G|---------------------------------------------------------------------------|
D|----5~-9~---5~-9~-----9----------------------------------------------------|
A|----5~-9~---5~-9~-----11---------------------------------------------------|
E|----7~-7~---7~-7~-----11---------------------------------------------------|

Listen for timing and you'll figure it!
************************************

| /   slide up
| \   slide down
| h   hammer-on
| p   pull-off
| ~   vibrato
| +   harmonic
| x   Mute note
| b   Bend
| pb  Pre-bend
| br  Bend release
| pbr Pre-bend release
| brb Bend release bend

************************************
            

comments powered by Disqus
↑ Back to top | The Courteeners Tabs for If It Wasn't For Me. Lyrics for acoustic guitar and electric guitar. Tablatures and chords are parodies/interpretations of the original songs. You may use it for private study, scholarship, research or language learning purposes only