» » »

The Courteeners, Acrylic Bass tabs (ver.1)

Artists:  A B C D E F G H I J K L M N O P Q R S T U V W X Y Z # 

Acrylic Bass tabs (ver.1)

The Courteeners Tabs
 Rating:
4.2/5 (5 votes)
Acrylic lessons Tabs too difficult? Try these video lessons and learn fast
1
                Quite an easy song to learn, basically just 4 notes played in different sequences.
My first tab, so please leave feedback :D

| x  Mute note
| r  Let ring

Into a Libertine dreamer..
G|------------| x3
D|------------|
A|---77-55-77-|
E|55----------|
..but there's not enough paper in the world
[gap]

Have you heard all your friends go..
G|---------------------------------------------------------------|
D|---------------------------------------------------------------|
A|---7---5---7-------7-7-5-5-7-7-----777755557777----777755557777|
E|5--------------5-5-------------5555------------5555------------|

G|------------| x2
D|------------|
A|---77-55-77-|
E|55----------|

G|-----------------------------|
D|-----------------------------|
A|----------777----------------|
E|5r-----------5r--------------|

Well no-one cares..
G|---------------------------------------------------------------|
D|---------------------------------------------------------------|
A|---7---5---7-------7-7-5-5-7-7-----777755557777----777755557777|
E|5--------------5-5-------------5555------------5555------------|

G|------------| x2
D|------------|
A|---77-55-77-|
E|55----------|

G|------------|
D|------------|
A|------------|
E|5r----------|

G|------------| x3
D|------------|
A|---77-55-77-|
E|55----------|
..but there's not enough paper in the world
[gap]

Have you heard all your friends go..
G|---------------------------------------------------------------|
D|---------------------------------------------------------------|
A|---7---5---7-------7-7-5-5-7-7-----777755557777----777755557777|
E|5--------------5-5-------------5555------------5555------------|

G|------------| x4
D|------------|
A|---77-55-77-|
E|55----------|

G|------------|
D|------------|
A|------------|
E|5r--------5x|

| x  Mute note
| r  Let ring
            
Submit corrections

comments powered by Disqus
↑ Back to top | The Courteeners Bass for Acrylic. Lyrics for acoustic guitar and electric guitar. 1 Tablatures and chords are parodies/interpretations of the original songs. You may use it for private study, scholarship, research or language learning purposes only