» » »

The Click Five, When Im Gone Tabs (ver.2)

Artists:  A B C D E F G H I J K L M N O P Q R S T U V W X Y Z # 

When Im Gone Tabs (ver.2)

The Click Five Tabs
 Rating:
4/5 (4 votes)
When Im Gone lessons Tabs too difficult? Try these video lessons and learn fast
1
                Guitar 1
|--------------------| \
|--------------------|  \
|--------------------|   x5
|---11-9------11-9-7-|  /
|-9-------9-9--------| /
|--------------------|

While Guitar 2 plays:

|------------------------------------| \
|------------------------------------|  \
|------------------------------------|   x2
|-4-4-4-4--7-7-7-7--4-4-4-4--9-9-9-9-|  /
|-4-4-4-4--7-7-7-7--4-4-4-4--9-9-9-9-| /
|-2-2-2-2--5-5-5-5--2-2-2-2--7-7-7-7-|

Both Guitars:

|----------------------------------------------------|
|----------------------------------------------------|
|-------------------------------------4-4-4-4-4-4-4--|
|-4----4----4----4---4-4-4-4-4-4-4-4--4-4-4-4-4-4-4--|
|-4----4----4----4---4-4-4-4-4-4-4-4--2-2-2-2-2-2-2--|
|-2----2----2----2---2-2-2-2-2-2-2-2-----------------|

|-------------------------------------------------------------------|
|-------------------------------------------------------------------|
|-------------------------------------2-2-2-2-2-2-2--4-4--4-4--4-4--|
|-4----4----4----4---4-4-4-4-4-4-4-4--2-2-2-2-2-2-2--4-4--4-4--4-4--|
|-4----4----4----4---4-4-4-4-4-4-4-4--0-0-0-0-0-0-0--2-2--2-2--2-2--|
|-2----2----2----2---2-2-2-2-2-2-2-2--------------------------------|

Chorus: Both Guitars
|------------------------------------| \
|------------------------------------|  \
|------------------------------------|  x2
|-4-4-4-4--7-7-7-7-7-7-7-7--9-9-9-9--|  /
|-4-4-4-4--7-7-7-7-7-7-7-7--9-9-9-9--| /
|-2-2-2-2--5-5-5-5-5-5-5-5--7-7-7-7--|

|-------------------------------------------------------|
|-------------------------------------------------------|
|-------------------------------------------------------|
|-4-4-4-4--7-7-7-7--4-4-4-4--9-9-9-9--4-4-4-4--9-9-9-9--|
|-4-4-4-4--7-7-7-7--4-4-4-4--9-9-9-9--4-4-4-4--9-9-9-9--|
|-2-2-2-2--5-5-5-5--2-2-2-2--7-7-7-7--2-2-2-2--7-7-7-7--|

Guitar 1

|--------------------|
|--------------------|
|--------------------|
|---11-9------11-9-7-|
|-9-------9-9--------|
|--------------------|

Both Guitars:

|---|                  |----------------|
|---|                  |----------------|
|---|                  |-4-4--4-4--4-4--|
|-4-| x40! (VERY FAST) |-4-4--4-4--4-4--|
|-4-|                  |-2-2--2-2--2-2--|
|-2-|                  |----------------|
  x

Chorus: Both Guitars

|------------------------------------| \
|------------------------------------|  \
|------------------------------------|  x2
|-4-4-4-4--7-7-7-7-7-7-7-7--9-9-9-9--|  /
|-4-4-4-4--7-7-7-7-7-7-7-7--9-9-9-9--| /
|-2-2-2-2--5-5-5-5-5-5-5-5--7-7-7-7--|

|-------------------------------------------------------|
|-------------------------------------------------------|
|-------------------------------------------------------|
|-4-4-4-4--7-7-7-7--4-4-4-4--9-9-9-9--4-4-4-4--9-9-9-9--|
|-4-4-4-4--7-7-7-7--4-4-4-4--9-9-9-9--4-4-4-4--9-9-9-9--|
|-2-2-2-2--5-5-5-5--2-2-2-2--7-7-7-7--2-2-2-2--7-7-7-7--|

Both Guitars:

|----------------------------------------------------------|
|----------------------------------------------------------|
|----------------------------------------------------------|
|-4-4-4-4--7-7-7-7--2-2-2-2--4-4-4-4--4-4-4-4--9-9-9-9--2--|
|-4-4-4-4--7-7-7-7--2-2-2-2--4-4-4-4--4-4-4-4--9-9-9-9--2--|
|-2-2-2-2--5-5-5-5--0-0-0-0--2-2-2-2--2-2-2-2--7-7-7-7--0--|

Both Guitars:

Keep playing muted while sliding down to the next note.
|-                   -|             |---|
|-                   -|             |---|
|-                   -|  x4  then a |---|
|-4 ------> 9 ---> 12-|             |-4-|
|-4 ------> 9 ---> 12-|             |-4-|
|-2 ------> 7 ---> 10-|             |-2-|
  x xxxxxxx   xxxx

Both Guitars:

|----------------------------------------------------------|
|----------------------------------------------------------|
|----------------------------------------------------------|
|-4-4-4-4--7-7-7-7--2-2-2-2--4-4-4-4--4-4-4-4--9-9-9-9--2--|
|-4-4-4-4--7-7-7-7--2-2-2-2--4-4-4-4--4-4-4-4--9-9-9-9--2--|
|-2-2-2-2--5-5-5-5--0-0-0-0--2-2-2-2--2-2-2-2--7-7-7-7--0--|

Then it goes right into the Chorus:

|------------------------------------| \
|------------------------------------|  \
|------------------------------------|  x2
|-4-4-4-4--7-7-7-7-7-7-7-7--9-9-9-9--|  /
|-4-4-4-4--7-7-7-7-7-7-7-7--9-9-9-9--| /
|-2-2-2-2--5-5-5-5-5-5-5-5--7-7-7-7--|

|---------------------------------------|
|---------------------------------------|
|---------------------------------------|
|-4-4-4-4--7-7-7-7--4-4-4-4--9-9-9-9----|
|-4-4-4-4--7-7-7-7--4-4-4-4--9-9-9-9----|
|-2-2-2-2--5-5-5-5--2-2-2-2--7-7-7-7----|


Guitar 1:

|--------------------| \
|--------------------|  \
|--------------------|   x5
|---11-9------11-9-7-|  /
|-9-------9-9--------| /
|--------------------|

Guitar 2:


|-                   -|
|-                   -| 
|-                   -|
|-4 ------> 9 ---> 12-|   
|-4 ------> 9 ---> 12-|
|-2 ------> 7 ---> 10-|  
  x xxxxxxx   xxxx


|-            -| 
|-            -|
|-4 ------> 9 -|   
|-4 ------> 9 -|
|-2 ------> 7 -|  
  x xxxxxxx  

Both Guitars:

|---|
|---|
|---|
|-4-| x3
|-4-|
|-2-|
            
Submit corrections

comments powered by Disqus
↑ Back to top | The Click Five Tabs for When Im Gone. Lyrics for acoustic guitar and electric guitar. 1 Tablatures and chords are parodies/interpretations of the original songs. You may use it for private study, scholarship, research or language learning purposes only