» » »

When Im Gone Tabs (ver.1)

Artists:  A B C D E F G H I J K L M N O P Q R S T U V W X Y Z # 

When Im Gone Tabs (ver.1)

The Click Five
Rating:
0/5 (0 votes)

Tabs too difficult? Try these video lessons and learn fast.
                Guitar 1: Joe Guese (Distortion)
Guitar 2: Kyle Patrick (Distortion)

Intro 1 (Guitar 1):

e--------------------------------------------------------------------------|
B--------------------------------------------------------------------------|
G--------------------------------------------------------------------------|
D--11-9---11-9-7--11-9---11-9-7-11-9---11-9-7-11-9---11-9-7--11-9---11-9-7-|
A-9----9-9-------9----9-9------9----7-7------9----9-9------9-----7-7-------|
D--------------------------------------------------------------------------|

Intro (Guitar 2) (2x):

e---------------------|
B---------------------|
G---------------------|
D-4444-9999-0000-2222-|
A-4444-9999-0000-2222-|
D-4444-9999-0000-2222-|

Verse 1 (Guitar 1 & 2) (Dear love better sit back bad news get the word out accidents 
with conclusions):

e-------------------------|
B-------------------------|
G-------------------------|
D-4-4444-4-4444-0000-2222-|
A-4-4444-4-4444-0000-2222-|
D-4-4444-4-4444-0000-2222-|

Verse 2 (Guitar 1 & 2) (I'm numb on the asphalt don't cry wasn't your fault, i can't 
it's just confusion, keep on, keep on, keep on):

e----------------------------------|
B----------------------------------|
G----------------------------------|
D-4-4444-4-4444-0000-2222-9999-555-|
A-4-4444-4-4444-0000-2222-9999-555-|
D-4-4444-4-4444-0000-2222-9999-555-|

Chorus (Guitar 1 & 2) (When I'm Gone when the lights are out...):

e-----------------------------------------|
B-----------------------------------------|
G-----------------------------------------|
D-4444-0000-7777-2222-4444-0000-7777-9999-|
A-4444-0000-7777-2222-4444-0000-7777-9999-|
D-4444-0000-7777-2222-4444-0000-7777-9999-|

(I'm just gonna let my life bleed on this letter...):

e-----------------------------------|
B-----------------------------------|
G-----------------------------------|
D-0000-2222-4444-9999-0000-55555555-|
A-0000-2222-4444-9999-0000-55555555-|
D-0000-2222-4444-9999-0000-55555555-|

Intro 2 (Guitar 1):

e----------------|
B----------------|
G----------------|
D--11-9---11-9-7-|
A-9----9-9-------|
D----------------|

Verse 3 (Guitar 1 & 2) PALM MUTE:

e-------------------------------------------------------------------|
B-------------------------------------------------------------------|
G-------------------------------------------------------------------|
D-44444444444444444444444444444444-00000000-22222222-99999999-55555-|
A-44444444444444444444444444444444-00000000-22222222-99999999-55555-|
D-44444444444444444444444444444444-00000000-22222222-99999999-55555-|

(Repeat Chorus)

Bridge 1 (Guitar 1 & 2):

e---------------------------------|
B---------------------------------|
G---------------------------------|
D-4444-9999-3333-4444-0000-9999-3-|
A-4444-9999-3333-4444-0000-9999-3-|
D-4444-9999-3333-4444-0000-9999-3-|

Bridge 2 (Guitar 1 & 2) PALM MUTE (2x):

e----------------------------------------------------|
B----------------------------------------------------|
G----------------------------------------------------|
D-44-55-66-7-99-1010-11 11-12-000-22-33-4-22-44-55-6-|
A-44-55-66-7-99-1010-11 11-12-000-22-33-4-22-44-55-6-|
D-44-55-66-7-99-1010-11 11-12-000-22-33-4-22-44-55-6-|

Chorus:

(When the lights are out don't be sad for long
When the lights are out i'll be shining on.) (don't do anything here)

continue:

(I'm just gonna let my life bleed on this letter...):

e-----------------------------------|
B-----------------------------------|
G-----------------------------------|
D-0000-2222-4444-9999-0000-55555555-|
A-0000-2222-4444-9999-0000-55555555-|
D-0000-2222-4444-9999-0000-55555555-|

then repeat chorus

Repeat Intro 1 (Guitar 1)
Then do this (Guitar 2::

e-----------------------------------------------|
B-----------------------------------------------|
G-----------------------------------------------|
D-44-55-66-7-99-1010-11 11-12-000-22-33-2-4-4-4-|
A-44-55-66-7-99-1010-11 11-12-000-22-33-2-4-4-4-|
D-44-55-66-7-99-1010-11 11-12-000-22-33-2-4-4-4-|

Listen to the song for the timing.
            
Tabs too difficult? Try these video lessons and learn fast.


comments powered by Disqus
↑ Back to top | Tablatures and chords are parodies/interpretations of the original songs. You may use it for private study, scholarship, research or language learning purposes only