» » »

The Click Five, The Way It Goes Tabs (ver.1)

Artists:  A B C D E F G H I J K L M N O P Q R S T U V W X Y Z # 

The Way It Goes Tabs (ver.1)

The Click Five Tabs
 Rating:
4/5 (4 votes)
The Way It Goes lessons Tabs too difficult? Try these video lessons and learn fast
1
                Twitter: @amanduhsays

Intro (Guitar 1)
e|------------------|-------------------|
B|-9----------------|-12----------------|
G|---9-11-11-9h11p9-|----9-11-11-9h11p9-| x2
D|------------------|-------------------|
A|------------------|-------------------|
E|------------------|-------------------|

Intro (Guitar 2)
e|-0-0-0-0-0-0-0-0-|-0-0-0-0-0-0-0-0-| 
B|-0-0-0-0-0-0-0-0-|-0-0-0-0-0-0-0-0-| 
G|-9-9-9-9-9-9-8-8-|-6-6-6-6-6-6-8-8-|
D|-9-9-9-9-9-9-9-9-|-6-6-6-6-6-6-9-9-| x2
A|-7-7-7-7-7-7-6-6-|-4-4-4-4-4-4-6-6-| 
E|-----------------|-----------------|

Verse (Guitar 1)
e|-----------------|-----------------|-----------------|-----------------|
B|-----------------|-----------------|-----------------|-----------------|
G|-----------------|-----------------|-----------------|-----------------|
D|-----------------|-----------------|-----------------|-----------------|
A|-----------------|-----------------|-----------------|-----------------|
E|-----------------|-----------------|-----------------|-----------------|

e|-----------------|-----------------|-----------------|-----------------|
B|------9----------|------12---------|-------9---------|------12---------|
G|--------9--------|---------9-------|---------9-------|---------9-------|
D|-----------------|-----------------|-----------------|-----------------|
A|-----------------|-----------------|-----------------|-----------------|
E|-----------------|-----------------|-----------------|-----------------|

Verse (Guitar 2)
e|-0-0-0-0-0-0-0-0-|-0-0-0-0-0-0-0-0-|-0-0-0-0-0-0-0-0-|-5-5-5-5-5—5-5-5-|
B|-0-0-0-0-0-0-0-0-|-0-0-0-0-0-0-0-0-|-0-0-0-0-0-0-0-0-|-5-5-5-5-5-5-5-5-|
G|-9-9-9-9-9-9-9-9-|-9-9-9-9-9-9-8-8-|-6-6-6-6-6-6-6-6-|-6-6-6-6-6-6-6-6-|
D|-9-9-9-9-9-9-9-9-|-9-9-9-9-9-9-9-9-|-6-6-6-6-6-6-6-6-|-7-7-7-7-7-7-7-7-|
A|-7-7-7-7-7-7-7-7-|-7-7-7-7-7-7-6-6-|-4-4-4-4-4-4-4-4-|-7-7-7-7-7-7-7-7-|
E|-----------------|-----------------|-----------------|-5-5-5-5-5-5-5-5-|

e|-0-0-0-0-0-0-0-0-|-0-0-0-0-0-0-0-0-|-0-0-0-0-0-0-0-0-|-5-5-5-5-5—5-5-5-|
B|-0-0-0-0-0-0-0-0-|-0-0-0-0-0-0-0-0-|-0-0-0-0-0-0-0-0-|-5-5-5-5-5-5-5-5-|
G|-9-9-9-9-9-9-9-9-|-9-9-9-9-9-9-8-8-|-6-6-6-6-6-6-6-6-|-6-6-6-6-6-6-6-6-|
D|-9-9-9-9-9-9-9-9-|-9-9-9-9-9-9-9-9-|-6-6-6-6-6-6-6-6-|-7-7-7-7-7-7-7-7-|
A|-7-7-7-7-7-7-7-7-|-7-7-7-7-7-7-6-6-|-4-4-4-4-4-4-4-4-|-7-7-7-7-7-7-7-7-|
E|-----------------|-----------------|-----------------|-5-5-5-5-5-5-5-5-|

Pre Chorus (Guitar 1)
e|-----------------|-----------------|-----------------|-----------------|
B|-----------------|-----------------|-----------------|-----------------|
G|----4-------6----|-----------------|----4-------6----|-----------------|
D|---4-4-----6-6---|----7-------7----|---4-4-----6-6---|----7-------7----|
A|-2-----2-4-----6-|---7-7-----7-7---|-2-----2-4-----4-|---7-7-----7-7---|
E|-----------------|-5-----5-5-----5-|-----------------|-5-----5-5-----5-|

Pre Chorus (Guitar 2)
e|-0-0-0-0-0-0-0-0-|-5-5-5-5-5-5-5-5-|-0-0-0-0-0-0-0-0-|-5-5-5-5-5-5-5-5-|
B|-0-0-0-0-0-0-0-0-|-5-5-5-5-5-5-5-5-|-0-0-0-0-0-0-0-0-|-5-5-5-5-5-5-5-5-|
G|-4-4-4-4-6-6-6-6-|-6-6-6-6-6-6-6-6-|-4-4-4-4-6-6-6-6-|-6-6-6-6-6-6-6-6-|
D|-4-4-4-4-6-6-6-6-|-7-7-7-7-7-7-7-7-|-4-4-4-4-6-6-6-6-|-7-7-7-7-7-7-7-7-|
A|-2-2-2-2-4-4-4-4-|-7-7-7-7-7-7-7-7-|-2-2-2-2-4-4-4-4-|-7-7-7-7-7-7-7-7-|
E|-----------------|-5-5-5-5-5-5-5-5-|-----------------|-5-5-5-5-5-5-5-5-|




Repeat Intro (Guitar 1)
e|------------------|-------------------|
B|-9----------------|-12----------------|
G|---9-11-11-9h11p9-|----9-11-11-9h11p9-| x2
D|------------------|-------------------|
A|------------------|-------------------|
E|------------------|-------------------|

Repeat Intro (Guitar 2)
e|-0-0-0-0-0-0-0-0-|-0-0-0-0-0-0-0-0-| 
B|-0-0-0-0-0-0-0-0-|-0-0-0-0-0-0-0-0-| 
G|-9-9-9-9-9-9-8-8-|-6-6-6-6-6-6-8-8-|
D|-9-9-9-9-9-9-9-9-|-6-6-6-6-6-6-9-9-| x2
A|-7-7-7-7-7-7-6-6-|-4-4-4-4-4-4-6-6-| 
E|-----------------|-----------------|

Verse (Guitar 1)
e|-----------------|-----------------|-----------------|-----------------|
B|-----------------|-----------------|-----------------|-----------------|
G|-----------------|-----------------|-----------------|-----------------|
D|-----------------|-----------------|-----------------|-----------------|
A|-----------------|-----------------|-----------------|-----------------|
E|-----------------|-----------------|-----------------|-----------------|

e|-----------------|-----------------|-----------------|-----------------|
B|------9----------|------12---------|-------9---------|------12---------|
G|--------9--------|---------9-------|---------9-------|---------9-------|
D|-----------------|-----------------|-----------------|-----------------|
A|-----------------|-----------------|-----------------|-----------------|
E|-----------------|-----------------|-----------------|-----------------|

Verse (Guitar 2)
e|-0-0-0-0-0-0-0-0-|-0-0-0-0-0-0-0-0-|-0-0-0-0-0-0-0-0-|-5-5-5-5-5—5-5-5-|
B|-0-0-0-0-0-0-0-0-|-0-0-0-0-0-0-0-0-|-0-0-0-0-0-0-0-0-|-5-5-5-5-5-5-5-5-|
G|-9-9-9-9-9-9-9-9-|-9-9-9-9-9-9-8-8-|-6-6-6-6-6-6-6-6-|-6-6-6-6-6-6-6-6-|
D|-9-9-9-9-9-9-9-9-|-9-9-9-9-9-9-9-9-|-6-6-6-6-6-6-6-6-|-7-7-7-7-7-7-7-7-|
A|-7-7-7-7-7-7-7-7-|-7-7-7-7-7-7-6-6-|-4-4-4-4-4-4-4-4-|-7-7-7-7-7-7-7-7-|
E|-----------------|-----------------|-----------------|-5-5-5-5-5-5-5-5-|

e|-0-0-0-0-0-0-0-0-|-0-0-0-0-0-0-0-0-|-0-0-0-0-0-0-0-0-|-5-5-5-5-5—5-5-5-|
B|-0-0-0-0-0-0-0-0-|-0-0-0-0-0-0-0-0-|-0-0-0-0-0-0-0-0-|-5-5-5-5-5-5-5-5-|
G|-9-9-9-9-9-9-9-9-|-9-9-9-9-9-9-8-8-|-6-6-6-6-6-6-6-6-|-6-6-6-6-6-6-6-6-|
D|-9-9-9-9-9-9-9-9-|-9-9-9-9-9-9-9-9-|-6-6-6-6-6-6-6-6-|-7-7-7-7-7-7-7-7-|
A|-7-7-7-7-7-7-7-7-|-7-7-7-7-7-7-6-6-|-4-4-4-4-4-4-4-4-|-7-7-7-7-7-7-7-7-|
E|-----------------|-----------------|-----------------|-5-5-5-5-5-5-5-5-|

Pre Chorus (Guitar 1)
e|-----------------|-----------------|-----------------|-----------------|
B|-----------------|-----------------|-----------------|-----------------|
G|----4-------6----|-----------------|----4-------6----|-----------------|
D|---4-4-----6-6---|----7-------7----|---4-4-----6-6---|----7-------7----|
A|-2-----2-4-----6-|---7-7-----7-7---|-2-----2-4-----4-|---7-7-----7-7---|
E|-----------------|-5-----5-5-----5-|-----------------|-5-----5-5-----5-|

Pre Chorus (Guitar 2)
e|-0-0-0-0-0-0-0-0-|-5-5-5-5-5-5-5-5-|-0-0-0-0-0-0-0-0-|-5-5-5-5-5-5-5-5-|
B|-0-0-0-0-0-0-0-0-|-5-5-5-5-5-5-5-5-|-0-0-0-0-0-0-0-0-|-5-5-5-5-5-5-5-5-|
G|-4-4-4-4-6-6-6-6-|-6-6-6-6-6-6-6-6-|-4-4-4-4-6-6-6-6-|-6-6-6-6-6-6-6-6-|
D|-4-4-4-4-6-6-6-6-|-7-7-7-7-7-7-7-7-|-4-4-4-4-6-6-6-6-|-7-7-7-7-7-7-7-7-|
A|-2-2-2-2-4-4-4-4-|-7-7-7-7-7-7-7-7-|-2-2-2-2-4-4-4-4-|-7-7-7-7-7-7-7-7-|
E|-----------------|-5-5-5-5-5-5-5-5-|-----------------|-5-5-5-5-5-5-5-5-|

Chorus
e|-0-0-0-0-0-0-0-0-|-0-0-0-0-0-0-0-0-|-5-5-5-5-5-5-7-7-|-5-5-5-5-5-5-7-7-| 
B|-0-0-0-0-0-0-0-0-|-0-0-0-0-0-0-0-0-|-5-5-5-5-5-5-7-7-|-5-5-5-5-5-5-7-7-|
G|-9-9-9-9-9-9-8-8-|-6-6-6-6-6-6-8-8-|-6-6-6-6-6-6-8-8-|-6-6-6-6-6-6-8-8-|
D|-9-9-9-9-9-9-9-9-|-6-6-6-6-6-6-9-9-|-7-7-7-7-7-7-9-9-|-7-7-7-7-7-7-9-9-|
A|-7-7-7-7-7-7-6-6-|-4-4-4-4-4-4-6-6-|-7-7-7-7-7-7-9-9-|-7-7-7-7-7-7-9-9-|  
E|-----------------|-----------------|-5-5-5-5-5-5-7-7-|-5-5-5-5-5-5-7-7-|

e|-0-0-0-0-0-0-0-0-|-0-0-0-0-0-0-0-0-|-5-5-5-5-5-5-7-7-|-5-5-5-5-5-5-7-7-| 
B|-0-0-0-0-0-0-0-0-|-0-0-0-0-0-0-0-0-|-5-5-5-5-5-5-7-7-|-5-5-5-5-5-5-7-7-|
G|-9-9-9-9-9-9-8-8-|-6-6-6-6-6-6-8-8-|-6-6-6-6-6-6-8-8-|-6-6-6-6-6-6-8-8-|
D|-9-9-9-9-9-9-9-9-|-6-6-6-6-6-6-9-9-|-7-7-7-7-7-7-9-9-|-7-7-7-7-7-7-9-9-|
A|-7-7-7-7-7-7-6-6-|-4-4-4-4-4-4-6-6-|-7-7-7-7-7-7-9-9-|-7-7-7-7-7-7-9-9-|  
E|-----------------|-----------------|-5-5-5-5-5-5-7-7-|-5-5-5-5-5-5-7-7-|

Fill (Guitar 1)
e|-----------------|-----------------|-----------------|-----------------|
B|--------14----12-|-----------------|--------14----12-|-----------------|
G|-----------13----|-----------------|-----------13----|-----------------|
D|-----------------|-----------------|-----------------|-----------------|
A|-----------------|-----------------|-----------------|-----------------|
E|-----------------|-----------------|-----------------|-----------------|

Bridge (Guitar 2)
e|-0-0-0-0-0-0-0-0-|-5-5-5-5-5-5-5-5-|-0-0-0-0-0-0-0-0-|-5-5-5-5-5-5-5-5-|
B|-0-0-0-0-0-0-0-0-|-5-5-5-5-5-5-5-5-|-0-0-0-0-0-0-0-0-|-5-5-5-5-5-5-5-5-|
G|-4-4-4-4-6-6-6-6-|-6-6-6-6-6-6-6-6-|-4-4-4-4-6-6-6-6-|-6-6-6-6-6-6-6-6-|
D|-4-4-4-4-6-6-6-6-|-7-7-7-7-7-7-7-7-|-4-4-4-4-6-6-6-6-|-7-7-7-7-7-7-7-7-|
A|-2-2-2-2-4-4-4-4-|-7-7-7-7-7-7-7-7-|-2-2-2-2-4-4-4-4-|-7-7-7-7-7-7-7-7-|
E|-----------------|-5-5-5-5-5-5-5-5-|-----------------|-5-5-5-5-5-5-5-5-|

e|--------0--------|-----------------|-----------------|-----------------|
B|--------0--------|-----------------|-----------------|-----------------|
G|--------9--------|-----------------|-----------------|-----------------|
D|--------9--------|-----------------|-----------------|-----------------|
A|--------7--------|-----------------|-----------------|-----------------|
E|-----------------|-----------------|-----------------|-----------------|

e|--------0--------|--------0--------|--------5--------|-5-5-5-5-5-5-5-5-|
B|--------0--------|--------0--------|--------5--------|-5-5-5-5-5-5-5-5-|
G|--------9--------|--------6--------|--------6--------|-6-6-6-6-6-6-6-6-|
D|--------9--------|--------6--------|--------7--------|-7-7-7-7-7-7-7-7-|
A|--------7--------|--------4--------|--------7--------|-7-7-7-7-7-7-7-7-|
E|-----------------|-----------------|--------5--------|-5-5-5-5-5-5-5-5-|

Chorus
e|-0-0-0-0-0-0-0-0-|-0-0-0-0-0-0-0-0-|-5-5-5-5-5-5-7-7-|-5-5-5-5-5-5-7-7-| 
B|-0-0-0-0-0-0-0-0-|-0-0-0-0-0-0-0-0-|-5-5-5-5-5-5-7-7-|-5-5-5-5-5-5-7-7-|
G|-9-9-9-9-9-9-8-8-|-6-6-6-6-6-6-8-8-|-6-6-6-6-6-6-8-8-|-6-6-6-6-6-6-8-8-|
D|-9-9-9-9-9-9-9-9-|-6-6-6-6-6-6-9-9-|-7-7-7-7-7-7-9-9-|-7-7-7-7-7-7-9-9-|
A|-7-7-7-7-7-7-6-6-|-4-4-4-4-4-4-6-6-|-7-7-7-7-7-7-9-9-|-7-7-7-7-7-7-9-9-|  
E|-----------------|-----------------|-5-5-5-5-5-5-7-7-|-5-5-5-5-5-5-7-7-|

e|-0-0-0-0-0-0-0-0-|-0-0-0-0-0-0-0-0-|-5-5-5-5-5-5-7-7-|-5-5-5-5-5-5-7-7-| 
B|-0-0-0-0-0-0-0-0-|-0-0-0-0-0-0-0-0-|-5-5-5-5-5-5-7-7-|-5-5-5-5-5-5-7-7-|
G|-9-9-9-9-9-9-8-8-|-6-6-6-6-6-6-8-8-|-6-6-6-6-6-6-8-8-|-6-6-6-6-6-6-8-8-|
D|-9-9-9-9-9-9-9-9-|-6-6-6-6-6-6-9-9-|-7-7-7-7-7-7-9-9-|-7-7-7-7-7-7-9-9-|
A|-7-7-7-7-7-7-6-6-|-4-4-4-4-4-4-6-6-|-7-7-7-7-7-7-9-9-|-7-7-7-7-7-7-9-9-|  
E|-----------------|-----------------|-5-5-5-5-5-5-7-7-|-5-5-5-5-5-5-7-7-|

Repeat Intro (Guitar 1)
e|------------------|-------------------|
B|-9----------------|-12----------------|
G|---9-11-11-9h11p9-|----9-11-11-9h11p9-| x2
D|------------------|-------------------|
A|------------------|-------------------|
E|------------------|-------------------|

Repeat Intro (Guitar 2)
e|-0-0-0-0-0-0-0-0-|-0-0-0-0-0-0-0-0-| 	     |------0-0-0------|
B|-0-0-0-0-0-0-0-0-|-0-0-0-0-0-0-0-0-| 	     |------0-0-0------|
G|-9-9-9-9-9-9-8-8-|-6-6-6-6-6-6-8-8-|	     |------9-9-9------|
D|-9-9-9-9-9-9-9-9-|-6-6-6-6-6-6-9-9-| x2    |------9-9-9------|
A|-7-7-7-7-7-7-6-6-|-4-4-4-4-4-4-6-6-| 	     |------7-7-7------|
E|-----------------|-----------------|	     |-----------------|
            
Submit corrections

comments powered by Disqus
↑ Back to top | The Click Five Tabs for The Way It Goes. Lyrics for acoustic guitar and electric guitar. 1 Tablatures and chords are parodies/interpretations of the original songs. You may use it for private study, scholarship, research or language learning purposes only