» » »

Summertime Chords (ver.1)

Artists:  A B C D E F G H I J K L M N O P Q R S T U V W X Y Z # 

Summertime Chords (ver.1)

The Click Five
Rating:
0/5 (0 votes)

Hard to play? Try these video lessons and learn fast.
                h=hammer on  po= pull off  s=slide up/down to

intro: e-3--3-3-3---------------|(let ring)
       b-0--0-1-0---------------|(let ring)
       g-0--0-0-0---------------|(let ring)
       d-0--------0-0-0-0-0-0-0-|
       a-2--------2-2-2-2-2-2-2-|
       E-3--------3-3-3-3-3-3-3-|
Verse 1:
B        E
On the boardwalk
B        F#
Working two shifts
Ab      E                B
Saving for that diamond ring
F#          B
Then I'll quit
(B)       E
All the cool kids
B         F#
Hanging south pier
Ab      E                   B       F#
Guess I'll have it figured out by next year

Chorus:
Ab
Summertime summertime you do it to me

F#
Everytime summertime you do it to me
E      B      F#
Ohhohhhohhhohhhhhh

I'm restless
E      B      F#
Ohhohhhohhhohhhhhh

Defenseless
B          E
Oh I can feel it
Ab           F#            E
Baby is it real or is it just a sign
F#
It's summertime

B E  B F#  Ab E  B F#

Verse 2: (same chords as Verse 1)
On the weekend
Got my ink done
Took my baby for a ride
in the sun
Left the boardwalk
On my four wheels
Now we're blasting down the shore and we feel

Chorus:

Interlude: guitar 1: E B F# 4X
           guitar 2: e---------------------------------|
                     b---------------------------------|
                     g------------------------6--------|
                     d---4h6po4---------4-4s8---8s6po4-|
                     a-7--------6-po4------------------|
                     E----------------7----------------|

                     e--------------------------------------------|
                     b--------------------------------------------|
                     d---4h6po4---------4h5-4h5-4h5-4h5-4h5-4h5-4-|
                     a-7--------6-po4-----------------------------|
                     E----------------7---------------------------|

                     e---------------------------------|
                     b---------------------------------|
                     g------------------------6--------|
                     d---4h6po4---------4-4s8---8s6po4-|
                     a-7--------6-po4------------------|
                     E----------------7----------------|

                     e----------------------------------|
                     b----------------------------------|
                     g----------------------------------|
                     d---4h6po4---------4-4s8po6--------|
                     a-7--------6-po4------------8po6---|
                     E----------------7---------------9-|

Ab
Summertime summertime you do it to me

F#
Everytime summertime you do it to me

E      B      F# I'm restless

E      B      F#
Ohhohhhohhhohhhhhh

Defenseless
B          E
Oh I can feel it
Ab           F#
Baby is it real or is it
E            B
Summertime summertime
F#
I'm restless
E           B
Everytime summertime
F#
Defenseless
B          E
Oh I can feel it
Ab           F#            E
Baby is it real or is it just a sign
F#
It's summertime
B E  B F#  Ab          E          
  F#
           Summertime summertime you do it to me
B E  B F#  Ab          E          B  F#      B
           Summertime summertime you do it to me
            
Hard to play? Try these video lessons and learn fast. | Correct




comments powered by Disqus
↑ Back to top | Tablatures and chords are parodies/interpretations of the original songs. You may use it for private study, scholarship, research or language learning purposes only