» » »

The Click Five, Lies Tabs (ver.1)

Artists:  A B C D E F G H I J K L M N O P Q R S T U V W X Y Z # 

Lies Tabs (ver.1)

The Click Five Tabs
 Rating:
4/5 (5 votes)
Lies lessons Tabs too difficult? Try these video lessons and learn fast
1
                -------------------------------------------------------------------------------
                             SONG NAME-Lies - Band Name-The Click Five
-------------------------------------------------------------------------------
This is my first tab, but I'm pretty confident about it...except for the solo
Tuning: E_A_D_G_B_e
Intro: Guitar 1
e|-12-10-8-7------12-10-8-7/19----14h15-14-12-11----12-10-8-7/19-------------|
B|---------------------------------------------------------------------------|
G|---------------------------------------------------------------------------|
D|---------------------------------------------------------------------------|
A|---------------------------------------------------------------------------|
E|---------------------------------------------------------------------------|
Intro: Guitar 2: Repeat 3X
e|---------------------------------------------------------------------------|
B|---------------------------------------------------------------------------|
G|---------4-4-4/7-7---------------------------------------------------------|
D|-2-2-5-5-4-4-4/7-7---------------------------------------------------------|
A|-2-2-5-5-2-2-2/5-5---------------------------------------------------------|
E|-0-0-3-3-------------------------------------------------------------------|
Verse 1: You told me you loved me
e|---------------------------------------------------------------------------|
B|---------------------------------------------------------------------------|
G|---------------------------------------------------------------------------|
D|---------------------------------------------------------------------------|
A|---------------------------------------------------------------------------|
E|---------------------------------------------------------------------------|
So, I don't understand....
e|---------------------------------------------------------------------------|
B|---------------------------------------------------------------------------|
G|----------------------4-4-4-7-7--------------------------------------------|
D|--------------2-2-5-5-4-4-4-7-7--------------------------------------------|
A|--------------2-2-5-5-2-2-2/5-5--------------------------------------------|
E|--------------0-0-3-3------------------------------------------------------|
Your promises are snapped in two
e|---------------------------------------------------------------------------|
B|---------------------------------------------------------------------------|
G|---------------------------------------------------------------------------|
D|---------------------------------------------------------------------------|
A|---------------------------------------------------------------------------|
E|---------------------------------------------------------------------------|
And words are made to burn.....
e|---------------------------------------------------------------------------|
B|---------------------------------------------------------------------------|
G|---------4-4-4-7-7---------------------------------------------------------|
D|-2-2-5-5-4-4-4/7-7---------------------------------------------------------|
A|-2-2-5-5-2-2-2/5-5---------------------------------------------------------|
E|-0-0-3-3-------------------------------------------------------------------|
Same thing in the Bridge, Chorus, and Verses: The bigger the better......Lies, lies, lies, yeah....
Solo: Guitar 1
e|---------------------------------------12-------12---12-14-15-16~----------|
B|---------------------------------12-15-----12-15---------------------------|
G|-9---8-9-11--9-11-12--11-12-14---------------------------------------------|
D|---------------------------------------------------------------------------|
A|---------------------------------------------------------------------------|
E|---------------------------------------------------------------------------|
Solo: Guitar 2
e|------------------------|
B|------------------------|
G|-------------7~~-7-7~~--|
D|-2-2-5-2-2-5-7~~-7-7~~--|
A|-2-2-5-2-2-5-5~~-5-5~~--|
E|-0-0-3-0-0-3------------|


| /  slide up
| \  slide down
| h  hammer-on
| p  pull-off
| ~  vibrato
| +  harmonic
| x  Mute note
===============================================================================
            
Submit corrections

comments powered by Disqus
↑ Back to top | The Click Five Tabs for Lies. Lyrics for acoustic guitar and electric guitar. 1 Tablatures and chords are parodies/interpretations of the original songs. You may use it for private study, scholarship, research or language learning purposes only