>
 >
Kidnap My Heart 2

Kidnap My Heart 2 Guitar Tabs

The Click Five - Kidnap My Heart 2 chords, tabs, tablatures, lyrics

Guitar lessons | Add/correct | Request | Top 50 tabs Artists:  A B C D E F G H I J K L M N O P Q R S T U V W X Y Z 0-9

Kidnap My Heart 2 Guitar Tabs – The Click Five

CD, Sheet music, Poster

Do you like Kidnap My Heart 2? Share with your friends now
ChordsTabsTabs v2Ukulele
-------------------------------------------------------------------------------
                             Kidnap My Heart - Click Five
-------------------------------------------------------------------------------

Tuning: Half Step Down 

Intro/ Verse:
Figure Out Strumming!
eb|-----------------------------|
Bb|-----------------------------|
Gb|-7-----4-----2-----4---------| Play It 6X!
Db|-7-----4-----2-----5---------|
Ab|-5-----2-----0-----5---------|
Eb|-5-----2-----0-----3---------|

Pre-Chorus:
eb|-----------------------------|-------------------------|
Bb|-----------------------------|-------------------------|
Gb|-4------2------4------7------|--4------2------4--------|
Db|-4------2------5------7------|--4------2------5--------|
Ab|-2-[7x]-0-[7x]-5-[7x]-5-[7x]-|--2-[7x]-0-[7x]-5-[7x]---|
Eb|-2------0------3------5------|--2------0------3--------|
   **************************     ****************!!!! 

Chorus:
Figure out Strumming
eb|-------|-------|-------|-------|
Bb|-------|-------|-------|-------|
Gb|---7---|---2---|---4---|---4---|
Db|---7---|---2---|---4---|---5---|
Ab|---5---|---0---|---2---|---5---|
Eb|---5---|---0---|---2---|---3---|

eb|-------|-------|-------|-------|-------|
Bb|-------|-------|-------|-------|-------|
Gb|---7---|---2---|---6---|---4---|---6---|
Db|---7---|---2---|---6---|---5---|---7---|
Ab|---5---|---0---|---3---|---5---|---7---|
Eb|---5---|---0---|---3---|---3---|---5---|

[REPEAT INTRO X2]

[REPEAT VERSE X4]

[REPEAT PRE-CHORUS]

[REPEAT CHORUS]


BRIDGE:
FIGURE OUT STRUMMING.
eb|--------------|-------------|
Bb|--------------|-------------|
Gb|--------------|-------------|
Db|-4---5---7----|--2---4---5--|
Ab|-2---3---5----|--2---4---5--|
Eb|--------------|--0---2---3--|


[REPEAT CHORUS]


OUTRO:
eb|-------------|
Bb|-------------|
Gb|-------------|
Db|--7---5------|
Ab|--7---5---7--|
Eb|--5---3---5--|




| *  Palm Mute
| /  slide up
| \  slide down
| h  hammer-on
| p  pull-off
| !  Fading Palm Mute
| +  harmonic
| x  Mute note

this is my 1st tab so, i hope this pass to your taste.
===============================================================================





Comments


Popular The Click Five tabs & chords
Catch Your Wave Bass Tabs
Good Day Bass Tabs
Just The Girl Bass Tabs
Good As Gold Chords
Good As Gold 1 Chords
Happy Birthday Chords
Mary Jane 3 Chords
The Way It Goes Tabs
The Way It Goes 1 Tabs
Summertime Ukulele


Song lyrics



↑ Back to top | Tablatures and chords are parodies/interpretations of the original songs. You may use it for private study, scholarship, research or language learning purposes only
© 2014 AZChords.com Contact us | Privacy policy | DMCA | Add/correct tabs | Request tabs | Top 50 tabs