» » »

The Click Five, Empty Tabs (ver.2)

Artists:  A B C D E F G H I J K L M N O P Q R S T U V W X Y Z # 

Empty Tabs (ver.2)

The Click Five Tabs
 Rating:
4.6/5 (9 votes)
Empty lessons Tabs too difficult? Try these video lessons and learn fast
1
                
-Para poh ito sa aking crush mga kabanda at sa mga taga Davao Central High School...(//_^)-

Im only 50% sure about the intro and the verse, But im 90% sure about the power chords..~
If u have any comments, suggestions or questions feel free to ask.....


Tuning: Standard

Verse:
Guitar 2(Lead):
e|--------------|-------------|-------------|-------------|
B|--------------|-------------|-------------|-------------|
G|------9-------|-----9-------|-----9-------|-----9-------|
D|----9---9-(8x)|---9---9-(4x)|---9---9-(4x)|---9---9-(4x)|
A|--7-----------|-------------|-------------|-------------|
E|--------------|-5-----------|-9-----------|-5-----------|

Guitar 2(Lead):
e|--------------|-------------|-------------|-------------|-------------|
B|--------------|-------------|-------------|-------------|-------------|
G|------9-------|-----9-------|-----9-------|-----9-------|-----9-------|
D|----9---9-(8x)|---9---9-(4x)|---9---9-(4x)|---9---9-(2x)|---9---9-(2x)|
A|--7-----------|-------------|-------------|-------------|-------------|
E|--------------|-5-----------|-9-----------|-5-----------|-7-----------|


Chorus:
Guitar 1 & 2: (listen to the song to get the # of times you strum)
e|--------------------------------------------------------|
B|--------------------------------------------------------|
G|--9999999999--------------------------------------------|
D|--9999999999--9999999999--1111111111111111--7777777777--| 
A|--7777777777--9999999999--1111111111111111--7777777777--|
E|--------------7777777777--9-9-9-9-9-9-9-9---5555555555--|

Verse 2:
Guitar 2(Lead):
e|--------------|-------------|-------------|-------------|-------------|
B|--------------|-------------|-------------|-------------|-------------|
G|------9-------|-----9-------|-----9-------|-----9-------|-----9-------|
D|----9---9-(8x)|---9---9-(4x)|---9---9-(4x)|---9---9-(2x)|---9---9-(2x)|
A|--7-----------|-------------|-------------|-------------|-------------|
E|--------------|-5-----------|-9-----------|-5-----------|-7-----------|

Chorus:
Guitar 1 & 2: (listen to the song to get the # of times you strum)
e|--------------------------------------------------------|
B|--------------------------------------------------------|
G|--9999999999--------------------------------------------|
D|--9999999999--9999999999--1111111111111111--7777777777--| 
A|--7777777777--9999999999--1111111111111111--7777777777--|
E|--------------7777777777--9-9-9-9-9-9-9-9---5555555555--|

Bridge
Guitar 2:
e|------------------------------|---------------------------------|
B|------------------------------|---------------------------------|
G|--9~--9h11~------8h9~-----9999|-9~--9h11~------8h9~------13h14~-|
D|--9~--------11~-------9~--9999|-7~--------11~-------9~----------| 
A|--7~----------------------7777|-7~------------------------------|
E|------------------------------|---------------------------------|

e|--------------------------------------------------------|
B|--------------------------------------------------------|
G|--9999999999--------------------------------------------|
D|--9999999999--9999999999--1111111111111111--7777777777--| 
A|--7777777777--9999999999--1111111111111111--7777777777--|
E|--------------7777777777--9-9-9-9-9-9-9-9---5555555555--|


Chorus:
Guitar 1 & 2: (listen to the song to get the # of times you strum)
e|--------------------------------------------------------|
B|--------------------------------------------------------|
G|--9999999999--------------------------------------------|
D|--9999999999--9999999999--1111111111111111--7777777777--| 2x 
A|--7777777777--9999999999--1111111111111111--7777777777--|
E|--------------7777777777--9-9-9-9-9-9-9-9---5555555555--|

Finish With
e|----------|
B|----------|
G|----9~----| -Were Empty.....
D|----9~----|
A|----7~----|
E|----------|
                             
Im sorry if i have so many errors....

Lyrics:Empty - The Click Five


Verse:

Tried to take a picture, Of love
Didn't think I'd miss her, That much
I want to fill this new frame
But its empty

Tried to write a letter, In ink
Its been getting better, I think
I got a piece of paper
But its empty
Its empty

Chorus:

Maybe we're trying
Trying too hard
Maybe we're torn apart
Maybe the timing
Is beating our hearts
We're empty

Verse:


And I've even wondered If we
Should be getting under, These sheets
We could lie in this bed..
But its empty
Its empty..

Chorus:

Maybe we're trying
Trying too hard
Maybe we're torn apart
Maybe the timing
Is beating our hearts
We're empty

Bridge:

Oh oh
Oh oh
Oooooh
Oh oh
Oh oh


Chorus: (2x)

Maybe we're trying
Trying too hard
Maybe we're torn apart
Maybe the timing
Is beating our hearts
We're empty

We're empty
We're empty

  Enjoy (//_^)

-GENOME BAND-
|.....................................|
|name: Debbie bacalso-----------------|
|a.k.a: chubkill or debbie------------|
|role in genome: vocals---------------|
|.....................................|
|name: Charliemagne uy----------------|
|a.k.a: charlie-----------------------|
|role in genome: lead guitar----------|
|.....................................|
|name: Christopher john tiu-----------|
|a.k.a: x2phr, tuper, en chris--------|
|role in genome: rhythm guitar--------|
|.....................................|
|name: Michael lu---------------------|
|a.k.a: mike en "mikelical romance"---|
|role in genome: bass guitar----------|
|.....................................|
|name: Gesster gwayne ortega----------|
|a.k.a: gess--------------------------|
|role in genome: drums----------------|
|.....................................|


 ~ E N D ~ 
            
Submit corrections

comments powered by Disqus
↑ Back to top | The Click Five Tabs for Empty. Lyrics for acoustic guitar and electric guitar. 1 Tablatures and chords are parodies/interpretations of the original songs. You may use it for private study, scholarship, research or language learning purposes only