» » »

The Click Five, Don't Let Me Go Tabs (ver.1)

Artists:  A B C D E F G H I J K L M N O P Q R S T U V W X Y Z # 

Don't Let Me Go Tabs (ver.1)

The Click Five Tabs
Rating:
0/5 (0 votes)
Don't Let Me Go lessons Tabs too difficult? Try these video lessons and learn fast
                Twitter: @amanduhsays

Intro
e|-------------------|-----------------|
B|-------------------|-----------------|
G|-11---11---6---7---|-4---4---7---6---| x2
D|----0----0---0---0-|---0---0---0---0-|
A|-------------------|-----------------|
E|-10---10---5---7---|-3---3---7---5---|

Verse
e|-------------------|-----------------|
B|-------------------|-----------------|
G|-11---11---6---7---|-4---4---7---6---| x2
D|---0-----0---0---0-|---0---0---0---0-|
A|-------------------|-----------------|
E|-10---10---5---7---|-3---3---7---5---|

e|-------------------|-----------------|-----------------|
B|-------------------|-----------------|-----------------|
G|-11---11---6---7---|-4---4---7---6---|-6---6---6-------|
D|----0----0---0---0-|---0---0---0---0-|---0---0---0-----|
A|-------------------|-----------------|-----------------|
E|-10---10---5---7---|-3---3---7---5---|-5---5---5-------|

e|-------------------|-----------------|
B|-------------------|-----------------|
G|-11---11---6---7---|-4---4---7---6---|
D|----0----0---0---0-|---0---0---0---0-|
A|-------------------|-----------------|
E|-10---10---5---7---|-3---3---7---5---|

Pre Chorus
e|-----------------|-----------------|-----------------|-----------------|
B|-----------------|-----------------|-----------------|-----------------|
G|-2---2---4---4---|-6---6---7---7---|-2---2---4---4---|-6---6---6---6---|
D|---0---0---0---0-|---0---0---0---0-|---0---0---0---0-|---0---0---0---0-|
A|-----------------|-----------------|-----------------|-----------------|
E|-2---2---3---3---|-5---5---7---7---|-2---2---3---3---|-5---5---5---5---|

Chorus
e|---------------------|-----------------|-----------------|-----------------|
B|---------------------|-----------------|-----------------|-----------------|
G|-11---11---11---11---|-6---6---6---6---|-4---4---6---6---|-4---4---6---6---|
D|----0----0----0----0-|---0---0---0---0-|---0---0---0---0-|---0---0---0---0-|
A|---------------------|-----------------|-----------------|-----------------|
E|-10---10---10---10---|-5---5---5---5---|-3---3---5---5---|-3---3---5---5---|

e|---------------------|-----------------|-----------------|-----------------|
B|---------------------|-----------------|-----------------|-----------------|
G|-11---11---11---11---|-6---6---6---6---|-4---4---6---6---|-4---3--2---3-3--|
D|----0----0----0----0-|---0---0---0---0-|---0---0---0---0-|---0------0---4--|
A|---------------------|-----------------|-----------------|-----------------|
E|-10---10---10---10---|-5---5---5---5---|-3---3---5---5---|-3------2-----3--|

Repeat Intro
e|-------------------|-----------------|-------------------|-----------------|
B|-------------------|-----------------|-10---10---5---7---|-3---3---7---5---|
G|-11---11---6---7---|-4---4---7---6---|-11---11---6---7---|-4---4---7---6---|
D|----0----0---0---0-|---0---0---0---0-|----0----0---0---0-|---0---0---0---0-|
A|-------------------|-----------------|-------------------|-----------------|
E|-10---10---5---7---|-3---3---7---5---|-10---10---5---7---|-3---3---7---5---|






Verse
e|-------------------|-----------------|
B|-------------------|-----------------|
G|-11---11---6---7---|-4---4---7---6---| x2
D|---0-----0---0---0-|---0---0---0---0-|
A|-------------------|-----------------|
E|-10---10---5---7---|-3---3---7---5---|

e|-------------------|-----------------|-----------------|
B|-------------------|-----------------|-----------------|
G|-11---11---6---7---|-4---4---7---6---|-6---6---6-------|
D|----0----0---0---0-|---0---0---0---0-|---0---0---0-----|
A|-------------------|-----------------|-----------------|
E|-10---10---5---7---|-3---3---7---5---|-5---5---5-------|

e|-------------------|-----------------|
B|-------------------|-----------------|
G|-11---11---6---7---|-4---4---7---6---|
D|----0----0---0---0-|---0---0---0---0-|
A|-------------------|-----------------|
E|-10---10---5---7---|-3---3---7---5---|

Pre Chorus
e|-----------------|-----------------|-----------------|-----------------|
B|-----------------|-----------------|-----------------|-----------------|
G|-2---2---4---4---|-6---6---7---7---|-2---2---4---4---|-6---6---6---6---|
D|---0---0---0---0-|---0---0---0---0-|---0---0---0---0-|---0---0---0---0-|
A|-----------------|-----------------|-----------------|-----------------|
E|-2---2---3---3---|-5---5---7---7---|-2---2---3---3---|-5---5---5---5---|

Chorus
e|---------------------|-----------------|-----------------|-----------------|
B|---------------------|-----------------|-----------------|-----------------|
G|-11---11---11---11---|-6---6---6---6---|-4---4---6---6---|-4---4---6---6---|
D|----0----0----0----0-|---0---0---0---0-|---0---0---0---0-|---0---0---0---0-|
A|---------------------|-----------------|-----------------|-----------------|
E|-10---10---10---10---|-5---5---5---5---|-3---3---5---5---|-3---3---5---5---|

e|---------------------|-----------------|-----------------|-----------------|
B|---------------------|-----------------|-----------------|-----------------|
G|-11---11---11---11---|-6---6---6---6---|-4---4---6---6---|-4---3--2---3-3--|
D|----0----0----0----0-|---0---0---0---0-|---0---0---0---0-|---0------0---4--|
A|---------------------|-----------------|-----------------|-----------------|
E|-10---10---10---10---|-5---5---5---5---|-3---3---5---5---|-3------2-----3--|

Bridge
	G		   A 		   G		    A
e|-3-3-3-3-3-3-3-3-|-0-0-0-0-0-0-0-0-|-3-3-3-3-3-3-3-3-|-0-0-0-0-0-0-0-0-|
B|-3-3-3-3-3-3-3-3-|-2-2-2-2-2-2-2-2-|-3-3-3-3-3-3-3-3-|-2-2-2-2-2-2-2-2-|
G|-0-0-0-0-0-0-0-0-|-2-2-2-2-2-2-2-2-|-0-0-0-0-0-0-0-0-|-2-2-2-2-2-2-2-2-|
D|-0-0-0-0-0-0-0-0-|-2-2-2-2-2-2-2-2-|-0-0-0-0-0-0-0-0-|-2-2-2-2-2-2-2-2-|
A|-2-2-2-2-2-2-2-2-|-0-0-0-0-0-0-0-0-|-2-2-2-2-2-2-2-2-|-0-0-0-0-0-0-0-0-|
E|-3-3-3-3-3-3-3-3-|-----------------|-3-3-3-3-3-3-3-3-|-----------------|
	G		   A 		G	A	    Em
e|-3-3-3-3-3-3-3-3-|-0-0-0-0-0-0-0-0-|-3-3-3-3-0-0-0-0-|-0---------------|
B|-3-3-3-3-3-3-3-3-|-2-2-2-2-2-2-2-2-|-3-3-3-3-2-2-2-2-|-0---------------|
G|-0-0-0-0-0-0-0-0-|-2-2-2-2-2-2-2-2-|-0-0-0-0-2-2-2-2-|-0---------------|
D|-0-0-0-0-0-0-0-0-|-2-2-2-2-2-2-2-2-|-0-0-0-0-2-2-2-2-|-2---------------|
A|-2-2-2-2-2-2-2-2-|-0-0-0-0-0-0-0-0-|-2-2-2-2-0-0-0-0-|-2---------------|
E|-3-3-3-3-3-3-3-3-|-----------------|-3-3-3-3---------|-0---------------|

Guitar Solo
e|-----------------|-----------------|-----------------|
B|-2-2-----2-----3-|-------2-----3---|-----5-----------|
G|-2---------------|-----------------|-----------------|
D|-2---0h2---0h2---|---0h2---0h2—----|-0h2-------------|
A|-0---------------|-0---------------|-----------------|
E|-----------------|-----------------|-----------------|


Repeat Intro
e|-------------------|-----------------|-------------------|-----------------|
B|-------------------|-----------------|-10---10---5---7---|-3---3---7---5---|
G|-11---11---6---7---|-4---4---7---6---|-11---11---6---7---|-4---4---7---6---|
D|----0----0---0---0-|---0---0---0---0-|----0----0---0---0-|---0---0---0---0-|
A|-------------------|-----------------|-------------------|-----------------|
E|-10---10---5---7---|-3---3---7---5---|-10---10---5---7---|-3---3---7---5---|

e|-----------------|-----------------|
B|-5---5---5---5---|-5---5---5---5---|
G|-6---6---6---6---|-6---6---6---6---|
D|---0---0---0---0-|---0---0---0---0-|
A|-----------------|-----------------|
E|-5---5---5---5---|-5---5---5---5---|

Chorus
	D		   A		G      A		G	A
e|-2-2-2-2-2-2-2-2-|-0-0-0-0-0-0-0-0-|-3-3-3-3-0-0-0-0-|-3-3-3-3-0-0-0-0-|
B|-3-3-3-3-3-3-3-3-|-2-2-2-2-2-2-2-2-|-3-3-3-3-2-2-2-2-|-3-3-3-3-2-2-2-2-|
G|-2-2-2-2-2-2-2-2-|-2-2-2-2-2-2-2-2-|-0-0-0-0-2-2-2-2-|-0-0-0-0-2-2-2-2-|
D|-0-0-0-0-0-0-0-0-|-2-2-2-2-2-2-2-2-|-0-0-0-0-2-2-2-2-|-0-0-0-0-2-2-2-2-|
A|-----------------|-0-0-0-0-0-0-0-0-|-2-2-2-2-0-0-0-0-|-2-2-2-2-0-0-0-0-|
E|-----------------|-----------------|-3-3-3-3---------|-3-3-3-3---------|
	D		   A		G	A	Em	D
e|-2-2-2-2-2-2-2-2-|-0-0-0-0-0-0-0-0-|-3-3-3-3-0-0-0-0-|-0-0-0-0-2-2-2-2-|
B|-3-3-3-3-3-3-3-3-|-2-2-2-2-2-2-2-2-|-3-3-3-3-2-2-2-2-|-0-0-0-0-3-3-3-3-|
G|-2-2-2-2-2-2-2-2-|-2-2-2-2-2-2-2-2-|-0-0-0-0-2-2-2-2-|-0-0-0-0-2-2-2-2-|
D|-0-0-0-0-0-0-0-0-|-2-2-2-2-2-2-2-2-|-0-0-0-0-2-2-2-2-|-2-2-2-2-0-0-0-0-|
A|-----------------|-0-0-0-0-0-0-0-0-|-2-2-2-2-0-0-0-0-|-2-2-2-2---------|
E|-----------------|-----------------|-3-3-3-3---------|-0-0-0-0---------|
	G
e|-3---------------|
B|-3---------------|
G|-0---------------|
D|-0---------------|
A|-3---------------|
E|-2---------------|

Repeat Intro
e|-------------------|-----------------|-------------------|-----------------|
B|-------------------|-----------------|-10---10---5---7---|-3---3---7---5---|
G|-11---11---6---7---|-4---4---7---6---|-11---11---6---7---|-4---4---7---6---|
D|----0----0---0---0-|---0---0---0---0-|----0----0---0---0-|---0---0---0---0-|
A|-------------------|-----------------|-------------------|-----------------|
E|-10---10---5---7---|-3---3---7---5---|-10---10---5---7---|-3---3---7---5---|

e|-----------------|-2---------------|
B|-----------------|-3---------------|
G|-2---2---4---6---|-2---------------|
D|---0---0---0---0-|-0---------------|
A|-----------------|-----------------|
E|-0---2---3---5---|-----------------|
            
Submit corrections

comments powered by Disqus
↑ Back to top | The Click Five Tabs for Don't Let Me Go. Lyrics for acoustic guitar and electric guitar. Tablatures and chords are parodies/interpretations of the original songs. You may use it for private study, scholarship, research or language learning purposes only