» » »

Catch Your Wave Bass tabs (ver.1)

Artists:  A B C D E F G H I J K L M N O P Q R S T U V W X Y Z # 

Catch Your Wave Bass tabs (ver.1)

The Click Five
Rating:
3/5 (5 votes)

Hard to play? Try these video lessons and learn fast.
                hi...


intro:

|---------------------------------------------|
|---------------------------------------------|
|---5------------------------5----------------|
|-----5-5-7-7-2-2/3-3--2/3-5----2/3-3-3/5-5---|
chorus:

|---------------------------------------------|
|---------------------------------------------|
|---5------------------------5----------------|
|-----5-5-7-7-2-2/3-3--2/3-5----2/3-3-3/5-5---|
outro:

|---------------------------------------------|
|---------------------------------------------|
|---5------------------------5----------------|
|-----5-5-7-7-2-2/3-3--2/3-5----2/3-3-3/5-5---|


bye...
            
Hard to play? Try these video lessons and learn fast. | Correct




comments powered by Disqus
↑ Back to top | Tablatures and chords are parodies/interpretations of the original songs. You may use it for private study, scholarship, research or language learning purposes only