>
 >
Catch Your Wave

Catch Your Wave Guitar Tabs

The Click Five - Catch Your Wave chords, tabs, tablatures, lyrics

Guitar lessons | Add/correct | Request | Top 50 tabs Artists:  A B C D E F G H I J K L M N O P Q R S T U V W X Y Z 0-9

Catch Your Wave Guitar Tabs – The Click Five

CD, Sheet music, Poster

Do you like Catch Your Wave? Share with your friends now
Bass TabsChordsChords v2TabsTabs v2Ukulele
The Click Five - Catch Your Wave


Intro:

|----------------------------------------------|
|----------------------------------------------|
|--7------------------------77-----------------|
|--7--77--99--4-4/5-5---4/5-77--4/5-5-5/7-7----| x2
|--5--77--99--4-4/5-5---4/5-55--4/5-5-5/7-7----|
|-----55--77--2-2/3-3---2/3-----2/3-3-3/5-5----|


Verse:

|---------------------------------------------|
|---------------------------------------------|
|---------------------------------------------|
|--7-7-7-7-7-7-7------------------------------| x4
|--4-4-4-4/5-5-5---4-4/5-5/7-7-7--------------|
|------------------2-2/3-3/5-5-5--------------|


Prechorus: (Same with verse) 

|---------------------------------------------|
|---------------------------------------------|
|---------------------------------------------|
|--7-7-7-7-7-7-7------------------------------| x3
|--4-4-4-4/5-5-5---4-4/5-7-7-7-7--------------|
|------------------2-2/3-5-5-5-5--------------|

|-------------------------------------------------------|
|-------------------------------------------------------|
|-------------------------------------------------------|
|--7-7-7-7-7-7-7----------------------------------------|
|--4-4-4-4/5-5-5---4-4/5-7-7-7-7-2-2-2--5-5-5--7-7-7-7--|
|------------------2-2/3-5-5-5-5-0-0-0--3-3-3--5-5-5-5--|



Chorus:

|-----------------------------------------|
|-----------------------------------------|
|--7----------7------------------------7--|
|--7---7--9---7---7--9--5---2--4-5--7--7--|
|--5---7--9---5---7--9--5---2--4-5--7--5--|
|------5--7-------5--7--3---0--2-3--5-----|


Intro:

|----------------------------------------------|
|----------------------------------------------|
|--7------------------------77-----------------|
|--7--77--99--4-4/5-5---4/5-77--4/5-5-5/7-7----|
|--5--77--99--4-4/5-5---4/5-55--4/5-5-5/7-7----|
|-----55--77--2-2/3-3---2/3-----2/3-3-3/5-5----|


Verse:

|---------------------------------------------|
|---------------------------------------------|
|---------------------------------------------|
|--7-7-7-7-7-7-7------------------------------| x4
|--4-4-4-4/5-5-5---4-4/5-5/7-7-7--------------|
|------------------2-2/3-3/5-5-5--------------|


Prechorus: (Same with verse) 

|---------------------------------------------|
|---------------------------------------------|
|---------------------------------------------|
|--7-7-7-7-7-7-7------------------------------| x3
|--4-4-4-4/5-5-5---4-4/5-7-7-7-7--------------|
|------------------2-2/3-5-5-5-5--------------|

|-------------------------------------------------------|
|-------------------------------------------------------|
|-------------------------------------------------------|
|--7-7-7-7-7-7-7----------------------------------------|
|--4-4-4-4/5-5-5---4-4/5-7-7-7-7-2-2-2--5-5-5--7-7-7-7--|
|------------------2-2/3-5-5-5-5-0-0-0--3-3-3--5-5-5-5--|


Chorus:

|-----------------------------------------|
|-----------------------------------------|
|--7----------7------------------------5--|
|--7---7--9---7---7--9--5---2--4-5--7--5--|
|--5---7--9---5---7--9--5---2--4-5--7--3--|
|------5--7-------5--7--3---0--2-3--5-----|


Bridge:
|----------------------------|
|----------------------------|
|--5-----5-----5-------------|
|--5--5--5--5--5--5---7---9--|
|--3--5--3--5--3--5---7---9--|
|-----3-----3-----3---5---7--|


Chorus/Outro:

|-------------------------------------------|
|-------------------------------------------|
|--9-----------9-------------------------9--|
|--9---9--11---9---9--11--7---4--6-7--9--9--|
|--7---9--11---7---9--11--7---4--6-7--9--7--|
|------7--9--------7--9---5---2--4-5--7-----|

|----------------------------------------------------|
|----------------------------------------------------|
|--9-----------9-------------------------------------|
|--9---9--11---9---9--11--7---4--6-7--9--4--6--7--9--|
|--7---9--11---7---9--11--7---4--6-7--9--4--6--7--9--|
|------7--9--------7--9---5---2--4-5--7--2--4--5--7--|


|----------------------------------------------|
|----------------------------------------------|
|--9--------------------------99---------------|
|--9--99--1111--6-6/7-7---6/7-99--6/7-7-7/9-9--|   x2
|--7--99--1111--6-6/7-7---6/7-77--6/7-7-7/9-9--|
|-----77--9-9---4-4/5-5---4/5-----4/5-5-5/7-7--|





Comments


Popular The Click Five tabs & chords
Catch Your Wave Bass Tabs
Jenny Bass Tabs
Jenny Live Chords
Just The Girl Chords
Pop Princess Chords
Say Goodnight 1 Chords
Catch Your Wave 1 Tabs
Happy Birthday 1 Tabs
Resign Tabs
Say Goodnight Ukulele


Song lyrics



↑ Back to top | Tablatures and chords are parodies/interpretations of the original songs. You may use it for private study, scholarship, research or language learning purposes only
© 2014 AZChords.com Contact us | Privacy policy | DMCA | Add/correct tabs | Request tabs | Top 50 tabs