» » »

The Civil Wars, Tip Of My Tongue Tabs (ver.1)

Artists:  A B C D E F G H I J K L M N O P Q R S T U V W X Y Z # 

Tip Of My Tongue Tabs (ver.1)

The Civil Wars Tabs
 Rating:
3.6/5 (5 votes)
Tip Of My Tongue lessons Tabs too difficult? Try these video lessons and learn fast
                standerd tunning capo on 5th

intro
|----------|
|---0----0-|
|--5-0-----|
|-7-----5--|x3
|------7---|
|----------|

|----------|
|----------|
|----8-----|
|--7-7--7--|
|-9-----9--|
|----------|
keep playing it till the chorus
-
You're a red string tied to my finger
A little love letter I carry with me
You're sunlight
Smoke rings and cigarettes
Outlines and kisses for silverscreens

   C     G   E7sus4          Em            
|---------------------------------|
|---------------------------------|
|--0-----0---------2---------0----|
|-2-2---0-0-----0------0----2-2---|
|3-----------2--------------------|
|------3-------------------0------|
 Oh    Dear  never saw you coming
|--------------------------------------|
|--------------------------------------|
|--0-----0-------------2----------0----|
|-2-2---0-0-------0--------0-----2-2---|
|3-----------2-------------------------|
|------3------------------------0------|
 Oh    My    Look what you have done
|----------------------------------|
|----------------------------------|
|--0------0---------2---------0----|
|-2-2----0-0-----0------0----2-2---|
|3------------2--------------------|
|-------3-------------------0------|
 You're my    favourite     song
|--------------------|
|--------------------|
|--0---0-----------2-|
|-2-2-2-2--------1-1-|
|3---3---------2-----|
|--------------------|
A-l-w-a-y-s    on the tip of my tongue

|----------|
|---0----0-|
|--5-0-----|
|-7-----5--|x3
|------7---|
|----------|

|----------|
|----------|
|----8-8---|
|--7-7-7---|
|-9--------|
|----------|


you own me with whispers like poetry
Your mouth is a melody i memorize
So sweet
I hear it echo everwhere I go
Day and night

|---------------------------------|
|---------------------------------|
|--0-----0---------2---------0----|
|-2-2---0-0-----0------0----2-2---|
|3-----------2--------------------|
|------3-------------------0------|
 Oh    Dear  never saw you coming
|--------------------------------------|
|--------------------------------------|
|--0-----0-------------2----------0----|
|-2-2---0-0-------0--------0-----2-2---|
|3-----------2-------------------------|
|------3------------------------0------|
 Oh    My    Look what you have done
|----------------------------------|
|----------------------------------|
|--0------0---------2---------0----|
|-2-2----0-0-----0------0----2-2---|
|3------------2--------------------|
|-------3-------------------0------|
 You're my    favourite     song
|--------------------|
|--------------------|
|--0---0-----------2-|
|-2-2-2-2--------1-1-|
|3---3---------2-----|
|--------------------|
A-l-w-a-y-s    on the tip of my tongue

Brige
|----------------------------------------------------------------------|
|---0----0----0---0--------------------0----0----0---0-----------------|
|--5-5--7-7--9-9-7----0---0--0--0-----5-5--7-7--9-9-7-7----2---2---2---|
|-7----9---10---9----5-5--7-7--9-9-7-7----9---10---9------1-1-1-1-1-1--|
|-------------------7----9---10---9----------------------2-------2-----|
|------------------------------------------------------------2---------|

Ooh
Mmm
Mmm

|---------------------------------|
|---------------------------------|
|--0-----0---------2---------0----|
|-2-2---0-0-----0------0----2-2---|
|3-----------2--------------------|
|------3-------------------0------|
 Oh    Dear  never saw you coming
|--------------------------------------|
|--------------------------------------|
|--0-----0-------------2----------0----|
|-2-2---0-0-------0--------0-----2-2---|
|3-----------2-------------------------|
|------3------------------------0------|
 Oh    My    Look what you have done
|----------------------------------|
|----------------------------------|
|--0------0---------2---------0----|
|-2-2----0-0-----0------0----2-2---|
|3------------2--------------------|
|-------3-------------------0------|
 You're my    favourite     song
|---------------------|
|---------------------|
|--0---0----------2---|
|-2-2-2-2--------1-1--|
|3---3---------2------|
|---------------------|
A-l-w-a-y-s    on 
Oh
Oh

|---------------------------------|
|---------------------------------|
|--0-----0---------2---------0----|
|-2-2---0-0-----0------0----2-2---|
|3-----------2--------------------|
|------3-------------------0------|
 Oh    Dear  never saw you coming
|--------------------------------------|
|--------------------------------------|
|--0-----0-------------2----------0----|
|-2-2---0-0-------0--------0-----2-2---|
|3-----------2-------------------------|
|------3------------------------0------|
 Oh    My    Look what you have done
|----------------------------------|
|----------------------------------|
|--0------0---------2---------0----|
|-2-2----0-0-----0------0----2-2---|
|3------------2--------------------|
|-------3-------------------0------|
 You're my    favourite     song
|---------------------|
|---------------------|
|--0---0----------2---|
|-2-2-2-2--------1-1--|
|3---3---------2------|
|---------------------|
A-l-w-a-y-s    on 

|----------|
|---0----0-|
|--5-0-----|
|-7-----5--|x3
|------7---|
|----------|
the tip of my tongue
|----------|
|----------|
|----8-8---|
|--7-7-7---|
|-9--------|
|----------|
|----------|
|---0----0-|
|--5-0-----|
|-7-----5--|x3
|------7---|
|----------|
Ooh
Ooh Hoo Hoo Hoo
Ooh Hoo Hoo Hoo
|----------|
|----------|
|----8-----|
|--7-7-7---|
|-9----9---|
|----------|
            
Submit corrections

comments powered by Disqus
↑ Back to top | The Civil Wars Tabs for Tip Of My Tongue. Lyrics for acoustic guitar and electric guitar. Tablatures and chords are parodies/interpretations of the original songs. You may use it for private study, scholarship, research or language learning purposes only