>
 >
Racun Dunia

Racun Dunia Guitar Tabs

The Changcuters - Racun Dunia chords, tabs, tablatures, lyrics

Guitar lessons | Add/correct | Request | Top 50 tabs Artists:  A B C D E F G H I J K L M N O P Q R S T U V W X Y Z 0-9

Racun Dunia Guitar Tabs – The Changcuters

CD, Sheet music, Poster

Do you like Racun Dunia? Share with your friends now
ChordsTabsTabs v2Ukulele
				RACUN DUNIA 
			      THE CHANGCUTERS



Tab ini sengaja kubuat untuk orang-orang yang tidak punya software keren yg 
namanya "Guitar Pro" itu..
Tab ini qu buat secara lengkap : Gitar 1, Gitar 2, dan Bass...
Yah... kita mulai saja deh.. Hidup musisi Indonesia!!

00.00
dimulai dengan drum....
00.07
E||--2--2--2--2--2--2--2--2--|--2--2--2--2--2--2--2--2--|--2--2--2--2--2--2--2--2--|
B||--3--3--3--3--3--3--3--3--|--3--3--3--3--3--3--3--3--|--3--3--3--3--3--3--3--3--|
G||--2--2--2--2--2--2--2--2--|--2--2--2--2--2--2--2--2--|--2--2--2--2--2--2--2--2--|
D||--0--0--0--0--0--0--0--0--|--0--0--0--0--0--0--0--0--|--0--0--0--0--0--0--0--0--|
A||--------------------------|--------------------------|--------------------------|
E||--------------------------|--------------------------|--------------------------|




--2--2--2--2--2--2--2--2--|--2--2--2--2--2--2--2--2--|--2--2--2--2--2--2--2--2--|
--3--3--3--3--3--3--3--3--|--3--3--3--3--3--3--3--3--|--3--3--3--3--3--3--3--3--|
--2--2--2--2--2--2--2--2--|--2--2--2--2--2--2--2--2--|--2--2--2--2--2--2--2--2--|
--0--0--0--0--0--0--0--0--|--0--0--0--0--0--0--0--0--|--0--0--0--0--0--0--0--0--|
--------------------------|--------------------------|--------------------------|
--------------------------|--------------------------|--------------------------|



--2--2--2--2--2--2--2--2--|--2-----------------|-------5------5------|-------7------7------|
--3--3--3--3--3--3--3--3--|--3-----------------|-------7------7------|-------7------7------|
--2--2--2--2--2--2--2--2--|--2-----------------|-------7------7------|-------7------7------|
--0--0--0--0--0--0--0--0--|--------------------|---------------------|---------------------|
--------------------------|--------------------|---------------------|---------------------|
--------------------------|--------------------|---------------------|---------------------|


 
-------5------5------|-------7------7------|-------5------5------|-------7------7------|
-------7------7------|-------7------7------|-------7------7------|-------7------7------|
-------7------7------|-------7------7------|-------7------7------|-------7------7------|
---------------------|---------------------|---------------------|---------------------|
---------------------|---------------------|---------------------|---------------------|
---------------------|---------------------|---------------------|---------------------|



--7--7--7--7--7--7--7--7--|---9---9---9---9---9---9---9---9--|---9-----------------|
--8--8--8--8--8--8--8--8--|--10--10--10--10--10--10--10--10--|--10-----------------|
--7--7--7--7--7--7--7--7--|---9---9---9---9---9---9---9---9--|---9-----------------|
--------------------------|----------------------------------|---------------------|
--------------------------|----------------------------------|---------------------|
--------------------------|----------------------------------|---------------------|



-------5------5------|-------7------7------|-------5------5------|-------7------7------|
-------7------7------|-------7------7------|-------7------7------|-------7------7------|
-------7------7------|-------7------7------|-------7------7------|-------7------7------|
---------------------|---------------------|---------------------|---------------------|
---------------------|---------------------|---------------------|---------------------|
---------------------|---------------------|---------------------|---------------------|



-------5------5------|-------7------7------|--7--7--7--7--7--7--7--7--|
-------7------7------|-------7------7------|--8--8--8--8--8--8--8--8--|
-------7------7------|-------7------7------|--7--7--7--7--7--7--7--7--|
---------------------|---------------------|--------------------------|
---------------------|---------------------|--------------------------|
---------------------|---------------------|--------------------------|



---9---9---9---9---9---9---9---9--|--5--5--5--5--5--5--5--5--|--5-----------------|
--10--10--10--10--10--10--10--10--|--7--7--7--7--7--7--7--7--|--7-----------------|
---9---9---9---9---9---9---9---9--|--7--7--7--7--7--7--7--7--|--7-----------------|
----------------------------------|--------------------------|--------------------|
----------------------------------|--------------------------|--------------------|
----------------------------------|--------------------------|--------------------|



-------5------5------|-------7------7------|-------5------5------|-------7------7------|
-------7------7------|-------7------7------|-------7------7------|-------7------7------|
-------7------7------|-------7------7------|-------7------7------|-------7------7------|
---------------------|---------------------|---------------------|---------------------|
---------------------|---------------------|---------------------|---------------------|
---------------------|---------------------|---------------------|---------------------|



-------5------5------|-------7------7------|--7--7--7--7--7--7--7--7--|
-------7------7------|-------7------7------|--8--8--8--8--8--8--8--8--|
-------7------7------|-------7------7------|--7--7--7--7--7--7--7--7--|
---------------------|---------------------|--------------------------|
---------------------|---------------------|--------------------------|
---------------------|---------------------|--------------------------|



---9---9---9---9---9---9---9---9--|--7--7--7--7--7--7--7--7--|
--10--10--10--10--10--10--10--10--|--8--8--8--8--8--8--8--8--|
---9---9---9---9---9---9---9---9--|--7--7--7--7--7--7--7--7--|
----------------------------------|--------------------------|
----------------------------------|--------------------------|
----------------------------------|--------------------------|



---9---9---9---9---9---9---9---9--|--5--5--5--5--5--5--5--5--|--5-----------------|
--10--10--10--10--10--10--10--10--|--7--7--7--7--7--7--7--7--|--7-----------------|
---9---9---9---9---9---9---9---9--|--7--7--7--7--7--7--7--7--|--7-----------------|
----------------------------------|--------------------------|--------------------|
----------------------------------|--------------------------|--------------------|
----------------------------------|--------------------------|--------------------|



--7--7--7--7--7--7--7--7--|--7--7--7--7--7--7--7--7--|--5--5--5--5--5--5--5--5--|
--8--8--8--8--8--8--8--8--|--8--8--8--8--8--8--8--8--|--7--7--7--7--7--7--7--7--|
--7--7--7--7--7--7--7--7--|--7--7--7--7--7--7--7--7--|--7--7--7--7--7--7--7--7--|
--------------------------|--------------------------|--------------------------|
--------------------------|--------------------------|--------------------------|
--------------------------|--------------------------|--------------------------|



--5--5--5--5--5--5--5--5--|--7--7--7--7--7--7--7--7--|--7--7--7--7--7--7--7--7--|
--7--7--7--7--7--7--7--7--|--8--8--8--8--8--8--8--8--|--8--8--8--8--8--8--8--8--|
--7--7--7--7--7--7--7--7--|--7--7--7--7--7--7--7--7--|--7--7--7--7--7--7--7--7--|
--------------------------|--------------------------|--------------------------|
--------------------------|--------------------------|--------------------------|
--------------------------|--------------------------|--------------------------|



---9---9---9---9---9---9---9---9--|---9---9---9---9---9---9---9---9--|-------5------5------|
--10--10--10--10--10--10--10--10--|--10--10--10--10--10--10--10--10--|-------7------7------|
---9---9---9---9---9---9---9---9--|---9---9---9---9---9---9---9---9--|-------7------7------|
----------------------------------|----------------------------------|---------------------|
----------------------------------|----------------------------------|---------------------|
----------------------------------|----------------------------------|---------------------|



-------7------7------|-------5------5------|-------7------7------|-------5------5------|
-------7------7------|-------7------7------|-------7------7------|-------7------7------|
-------7------7------|-------7------7------|-------7------7------|-------7------7------|
---------------------|---------------------|---------------------|---------------------|
---------------------|---------------------|---------------------|---------------------|
---------------------|---------------------|---------------------|---------------------|



-------7------7------|--7--7--7--7--7--7--7--7--|---9---9---9---9---9---9---9---9--|
-------7------7------|--8--8--8--8--8--8--8--8--|--10--10--10--10--10--10--10--10--|
-------7------7------|--7--7--7--7--7--7--7--7--|---9---9---9---9---9---9---9---9--|
---------------------|--------------------------|----------------------------------|
---------------------|--------------------------|----------------------------------|
---------------------|--------------------------|----------------------------------|



--7--7--7--7--7--7--7--7--|---9---9---9---9---9---9---9---9--|--7--7--7--7--7--7--7--7--|
--8--8--8--8--8--8--8--8--|--10--10--10--10--10--10--10--10--|--8--8--8--8--8--8--8--8--|
--7--7--7--7--7--7--7--7--|---9---9---9---9---9---9---9---9--|--7--7--7--7--7--7--7--7--|
--------------------------|----------------------------------|--------------------------|
--------------------------|----------------------------------|--------------------------|
--------------------------|----------------------------------|--------------------------|


 
---9---9---9---9---9---9---9---9--|--5--5--5--5--5--5--5--5--|--5-----------------|
--10--10--10--10--10--10--10--10--|--7--7--7--7--7--7--7--7--|--7-----------------|
---9---9---9---9---9---9---9---9--|--7--7--7--7--7--7--7--7--|--7-----------------|
----------------------------------|--------------------------|--------------------|
----------------------------------|--------------------------|--------------------|
----------------------------------|--------------------------|--------------------|


SOLO 01.42
--------------------------|--------------------------|--------------------------|
----------10--------------|--------------------------|----------10--------------|
--11------------11--9--7--|--9--7--------------7--9--|--11------------11--9--7--|
--------------------------|----------9----7h-9-------|--------------------------|
--------------------------|--------------------------|--------------------------|
--------------------------|--------------------------|--------------------------|



-----------------------------|----------------------------------|
--12---10-------10-----------|--12--10------12--10------12--10--|
------------11-------11---9--|----------11----------11----------|
-----------------------------|----------------------------------|
-----------------------------|----------------------------------|
-----------------------------|----------------------------------|



--------------------------------|----------------------------|-----------------------------|
------12--10------10------------|----------------------------|--12---10-------10-----------|
--11----------11------11--9--7--|-----7--9s--11--9--7--9--7--|------------11-------11---9--|
--------------------------------|--9-------------------------|-----------------------------|
--------------------------------|----------------------------|-----------------------------|
--------------------------------|----------------------------|-----------------------------|



-------------------------|-----------7----5-----5--|--5--5--5--5--5--5--5--5--|
--------3--5----3-----3--|--------5----------5-----|--7--7--7--7--7--7--7--7--|
-----4-------------4-----|-----6-------------------|--7--7--7--7--7--7--7--7--|
--5----------------------|--7----------------------|--------------------------|
-------------------------|-------------------------|--------------------------|
-------------------------|-------------------------|--------------------------|



--5--13---12---10----------|--7--7--7--7--7--7--7--7--|--7--7--7--7--7--7--7--7--|
--7------------------12----|--8--8--8--8--8--8--8--8--|--8--8--8--8--8--8--8--8--|
--7------------------------|--7--7--7--7--7--7--7--7--|--7--7--7--7--7--7--7--7--|
---------------------------|--------------------------|--------------------------|
---------------------------|--------------------------|--------------------------|
---------------------------|--------------------------|--------------------------|



--5--5--5--5--5--5--5--5--|--5--5--5--5--5--5--5--5--|--7--7--7--7--7--7--7--7--|
--7--7--7--7--7--7--7--7--|--7--7--7--7--7--7--7--7--|--8--8--8--8--8--8--8--8--|
--7--7--7--7--7--7--7--7--|--7--7--7--7--7--7--7--7--|--7--7--7--7--7--7--7--7--|
--------------------------|--------------------------|--------------------------|
--------------------------|--------------------------|--------------------------|
--------------------------|--------------------------|--------------------------|



--7--7--7--7--7--7--7--7--|---9---9---9---9---9---9---9---9--|---9---9---9---9---9----9---8--|
--8--8--8--8--8--8--8--8--|--10--10--10--10--10--10--10--10--|--10--10--10--10--10---10---9--|
--7--7--7--7--7--7--7--7--|---9---9---9---9---9---9---9---9--|---9---9---9---9---9----9---8--|
--------------------------|----------------------------------|-------------------------------|
--------------------------|----------------------------------|-------------------------------|
--------------------------|----------------------------------|-------------------------------|



--7--7--7--7--7--7--7--7--|--7--7--7--7--7--7--7--7--|--5--5--5--5--5--5--5--5--|
--8--8--8--8--8--8--8--8--|--8--8--8--8--8--8--8--8--|--7--7--7--7--7--7--7--7--|
--7--7--7--7--7--7--7--7--|--7--7--7--7--7--7--7--7--|--7--7--7--7--7--7--7--7--|
--------------------------|--------------------------|--------------------------|
--------------------------|--------------------------|--------------------------|
--------------------------|--------------------------|--------------------------|



--5--5--5--5--5--5--5--5--|--7--7--7--7--7--7--7--7--|--7--7--7--7--7--7--7--7--|
--7--7--7--7--7--7--7--7--|--8--8--8--8--8--8--8--8--|--8--8--8--8--8--8--8--8--|
--7--7--7--7--7--7--7--7--|--7--7--7--7--7--7--7--7--|--7--7--7--7--7--7--7--7--|
--------------------------|--------------------------|--------------------------|
--------------------------|--------------------------|--------------------------|
--------------------------|--------------------------|--------------------------|



---9---9---9---9---9---9---9---9--|---9---9---9---9---9---9---9---9--|
--10--10--10--10--10--10--10--10--|--10--10--10--10--10--10--10--10--|
---9---9---9---9---9---9---9---9--|---9---9---9---9---9---9---9---9--|
----------------------------------|----------------------------------|
----------------------------------|----------------------------------|
----------------------------------|----------------------------------|



---9---9---9---9---9---9---9---9--|---9-----------------|-------5------5------|
--10--10--10--10--10--10--10--10--|--10-----------------|-------7------7------|
---9---9---9---9---9---9---9---9--|---9-----------------|-------7------7------|
----------------------------------|---------------------|---------------------|
----------------------------------|---------------------|---------------------|
----------------------------------|---------------------|---------------------|



-------7------7------|-------5------5------|-------7------7------|-------5------5------|
-------7------7------|-------7------7------|-------7------7------|-------7------7------|
-------7------7------|-------7------7------|-------7------7------|-------7------7------|
---------------------|---------------------|---------------------|---------------------|
---------------------|---------------------|---------------------|---------------------|
---------------------|---------------------|---------------------|---------------------|



-------7------7------|--7--7--7--7--7--7--7--7--|---9---9---9---9---9---9---9---9--|
-------7------7------|--8--8--8--8--8--8--8--8--|--10--10--10--10--10--10--10--10--|
-------7------7------|--7--7--7--7--7--7--7--7--|---9---9---9---9---9---9---9---9--|
---------------------|--------------------------|----------------------------------|
---------------------|--------------------------|----------------------------------|
---------------------|--------------------------|----------------------------------|



--7--7--7--7--7--7--7--7--|---9---9---9---9---9---9---9---9--|--7--7--7--7--7--7--7--7--|
--8--8--8--8--8--8--8--8--|--10--10--10--10--10--10--10--10--|--8--8--8--8--8--8--8--8--|
--7--7--7--7--7--7--7--7--|---9---9---9---9---9---9---9---9--|--7--7--7--7--7--7--7--7--|
--------------------------|----------------------------------|--------------------------|
--------------------------|----------------------------------|--------------------------|
--------------------------|----------------------------------|--------------------------|



---9---9---9---9---9---9---9---9--|--7--7--7--7--7--7--7--7--|
--10--10--10--10--10--10--10--10--|--8--8--8--8--8--8--8--8--|
---9---9---9---9---9---9---9---9--|--7--7--7--7--7--7--7--7--|
----------------------------------|--------------------------|
----------------------------------|--------------------------|
----------------------------------|--------------------------|


 							      BASS 02.54
---9---9---9---9---9---9---9---9--|--5--5--5--5--5--5--5--5--|--5-----------------|
--10--10--10--10--10--10--10--10--|--7--7--7--7--7--7--7--7--|--7-----------------|
---9---9---9---9---9---9---9---9--|--7--7--7--7--7--7--7--7--|--7-----------------|
----------------------------------|--------------------------|--------------------|
----------------------------------|--------------------------|--------------------|
----------------------------------|--------------------------|--------------------|


---------------|---------------|---------------|---------------|---------------|
---------------|---------------|---------------|---------------|---------------|
---------------|---------------|---------------|---------------|---------------|
---------------|---------------|---------------|---------------|---------------|
---------------|---------------|---------------|---------------|---------------|
---------------|---------------|---------------|---------------|---------------|


						SOLO 2 03.06
---------------|---------------|---------------|--------------------------|
---------------|---------------|---------------|--------------------------|
---------------|---------------|---------------|-----------------------7--|
---------------|---------------|---------------|-----------------7--9-----|
---------------|---------------|---------------|--------5--7--9-----------|
---------------|---------------|---------------|--5--7--------------------|



----------------------|---------------------|------------------------|----------------------|
----------------------|---------------------|------------------------|----------------------|
--9---9---7-----------|--9------7--------L--|--9--11--9--7--------L--|----------------------|
-------------9--------|---------------------|------------------------|--9------7---------7--|
----------------------|---------------------|------------------------|----------------9-----|
----------------------|---------------------|------------------------|----------------------|



----------------------|----------------------|----------------------|
----------------------|----------------------|----------------------|
----------------------|----------------------|----------------------|
--9------7---------7--|--9------7---------7--|--9------7---------7--|
----------------9-----|----------------9-----|----------------9-----|
----------------------|----------------------|----------------------|



--------------------------|--------------------------|--------------------------|
--------------------------|--------------------------|--------------------------|
--------------------------|--------------------------|--------------------------|
--9--9--9--7--7--7-----7--|--9--9--9--7--7--7-----7--|--9--9--9--7--7--7-----7--|
--------------------9-----|--------------------9-----|--------------------9-----|
--------------------------|--------------------------|--------------------------|



--------------------------|--------------------------|--------------------------|
--------------------------|--------------------------|--------------------------|
--------------------------|--------------------------|--------------------------|
--9--9--9--7--7--7-----7--|--9--9--9--7--7--7-----7--|--9--9--9--7--7--7-----7--|
--------------------9-----|--------------------9-----|--------------------9-----|
--------------------------|--------------------------|--------------------------|


--------------------------|--------------------------|--------------------------|
--------------------------|--------------------------|--7--7--7--5--5--5--------|
--------------------------|--------------------------|--------------------7--7--|
--9--9--9--7--7--7-----7--|--9--9--9--7--7--7-----7--|--------------------------|
--------------------9-----|--------------------9-----|--------------------------|
--------------------------|--------------------------|--------------------------|



--------------------------|--------------------------|--------------------------|
--7--7--7--5--5--5--------|--7--7--7--5--5--5--------|--7--7--7--5--5--5--------|
--------------------7--7--|--------------------7--7--|--------------------7--7--|
--------------------------|--------------------------|--------------------------|
--------------------------|--------------------------|--------------------------|
--------------------------|--------------------------|--------------------------|



--------------------------|--------------------------|--------------------------|
--7--7--7--5--5--5--------|--7--7--7--5--5--5--------|--7--7--7--5--5--5--------|
--------------------7--7--|--------------------7--7--|--------------------7--7--|
--------------------------|--------------------------|--------------------------|
--------------------------|--------------------------|--------------------------|
--------------------------|--------------------------|--------------------------|



--------------------------|--5--5--5--5--5--5--5--5--|--7--7--7--7--7--7--7--7--|
--7--7--7--5--5--5--------|--7--7--7--7--7--7--7--7--|--8--8--8--8--8--8--8--8--|
--------------------7--7--|--7--7--7--7--7--7--7--7--|--7--7--7--7--7--7--7--7--|
--------------------------|--------------------------|--------------------------|
--------------------------|--------------------------|--------------------------|
--------------------------|--------------------------|--------------------------|



--5--5--5--5--5--5--5--5--|--7--7--7--7--7--7--7--7--|--5--5--5--5--5--5--5--5--|
--7--7--7--7--7--7--7--7--|--8--8--8--8--8--8--8--8--|--7--7--7--7--7--7--7--7--|
--7--7--7--7--7--7--7--7--|--7--7--7--7--7--7--7--7--|--7--7--7--7--7--7--7--7--|
--------------------------|--------------------------|--------------------------|
--------------------------|--------------------------|--------------------------|
--------------------------|--------------------------|--------------------------|



--7--7--7--7--7--7--7--7--|--5--5--5--5--5--5--5--5--|--7--7--7--7--7--7--7--7--|
--8--8--8--8--8--8--8--8--|--7--7--7--7--7--7--7--7--|--8--8--8--8--8--8--8--8--|
--7--7--7--7--7--7--7--7--|--7--7--7--7--7--7--7--7--|--7--7--7--7--7--7--7--7--|
--------------------------|--------------------------|--------------------------|
--------------------------|--------------------------|--------------------------|
--------------------------|--------------------------|--------------------------|



--5--5--5--5--5--5--5--5--|--7--7--7--7--7--7--7--7--|--5--5--5--5--5--5--5--5--|
--7--7--7--7--7--7--7--7--|--8--8--8--8--8--8--8--8--|--7--7--7--7--7--7--7--7--|
--7--7--7--7--7--7--7--7--|--7--7--7--7--7--7--7--7--|--7--7--7--7--7--7--7--7--|
--------------------------|--------------------------|--------------------------|
--------------------------|--------------------------|--------------------------|
--------------------------|--------------------------|--------------------------|



--7--7--7--7--7--7--7--7--|--5--5--5--5--5--5--5--5--|--7--7--7--7--7--7--7--7--|
--8--8--8--8--8--8--8--8--|--7--7--7--7--7--7--7--7--|--8--8--8--8--8--8--8--8--|
--7--7--7--7--7--7--7--7--|--7--7--7--7--7--7--7--7--|--7--7--7--7--7--7--7--7--|
--------------------------|--------------------------|--------------------------|
--------------------------|--------------------------|--------------------------|
--------------------------|--------------------------|--------------------------|



--5--5--5--5--5--5--5--5--|--7--7--7--7--7--7--7--7--|--7--7--7--7--7--7--7--7--|
--7--7--7--7--7--7--7--7--|--8--8--8--8--8--8--8--8--|--8--8--8--8--8--8--8--8--|
--7--7--7--7--7--7--7--7--|--7--7--7--7--7--7--7--7--|--7--7--7--7--7--7--7--7--|
--------------------------|--------------------------|--------------------------|
--------------------------|--------------------------|--------------------------|
--------------------------|--------------------------|--------------------------|



---9---9---9---9---9---9---9---9--|--7--7--7--7--7--7--7--7--|
--10--10--10--10--10--10--10--10--|--8--8--8--8--8--8--8--8--|
---9---9---9---9---9---9---9---9--|--7--7--7--7--7--7--7--7--|
----------------------------------|--------------------------|
----------------------------------|--------------------------|
----------------------------------|--------------------------|



---9---9---9---9---9---9---9---9--|--7--7--7--7--7--7--7--7--|
--10--10--10--10--10--10--10--10--|--8--8--8--8--8--8--8--8--|
---9---9---9---9---9---9---9---9--|--7--7--7--7--7--7--7--7--|
----------------------------------|--------------------------|
----------------------------------|--------------------------|
----------------------------------|--------------------------|



---9---9---9---9---9---9---9---9--|--7--7--7--7--7--7--7--7--|
--10--10--10--10--10--10--10--10--|--8--8--8--8--8--8--8--8--|
---9---9---9---9---9---9---9---9--|--7--7--7--7--7--7--7--7--|
----------------------------------|--------------------------|
----------------------------------|--------------------------|
----------------------------------|--------------------------|



---9---9---9---9---9---9---9---9--|--5--5--5--5--5--5--5--5--|--5---------------5--|
--10--10--10--10--10--10--10--10--|--7--7--7--7--7--7--7--7--|--7---------------7--|
---9---9---9---9---9---9---9---9--|--7--7--7--7--7--7--7--7--|--7---------------7--|
----------------------------------|--------------------------|---------------------|
----------------------------------|--------------------------|---------------------|
----------------------------------|--------------------------|---------------------|



--7--7--7--7--7--7--7--7--|---9---9---9---9---9---9---9---9--|--5--5--5--5--5--5--5--5--|
--8--8--8--8--8--8--8--8--|--10--10--10--10--10--10--10--10--|--7--7--7--7--7--7--7--7--|
--7--7--7--7--7--7--7--7--|---9---9---9---9---9---9---9---9--|--7--7--7--7--7--7--7--7--|
--------------------------|----------------------------------|--------------------------|
--------------------------|----------------------------------|--------------------------|
--------------------------|----------------------------------|--------------------------|


                04.24 ................
--5---------------5--||
--7---------------7--||
--7---------------7--||
---------------------||
---------------------||
---------------------||



00.07
hanya gitar 1.......              00.13
E||-------|-------|-------|-------|--10--10--10--10--10--10--10--10--|
B||-------|-------|-------|-------|--10--10--10--10--10--10--10--10--|
G||-------|-------|-------|-------|--11--11--11--11--11--11--11--11--|
D||-------|-------|-------|-------|--12--12--12--12--12--12--12--12--|
A||-------|-------|-------|-------|----------------------------------|
E||-------|-------|-------|-------|----------------------------------|



--10--10--10--10--10--10--10--10--|--10--10--10--10--10--10--10--10--|--10-----------------|
--10--10--10--10--10--10--10--10--|--10--10--10--10--10--10--10--10--|--10-----------------|
--11--11--11--11--11--11--11--11--|--11--11--11--11--11--11--11--11--|--11-----------------|
--12--12--12--12--12--12--12--12--|--12--12--12--12--12--12--12--12--|---------------------|
----------------------------------|----------------------------------|---------------------|
----------------------------------|----------------------------------|---------------------|


------------------------|------------------------|------------------------|
------------------------|------------------------|------------------------|
------------------------|------------------------|------------------------|
--7----0--7----0--7--0--|--4----0--4----0--4--6--|--7----0--7----0--7--0--|
--5----0--5----0--5--0--|--2----0--2----0--2--4--|--5----0--5----0--5--0--|
------------------------|------------------------|------------------------|



------------------------|------------------------|------------------------|
------------------------|------------------------|------------------------|
------------------------|------------------------|------------------------|
--4----0--4----0--4--6--|--7----0--7----0--7--0--|--4----0--4----0--4--6--|
--2----0--2----0--2--4--|--5----0--5----0--5--0--|--2----0--2----0--2--4--|
------------------------|------------------------|------------------------|


--------------------------|--------------------------|--------------------|
--------------------------|--------------------------|--------------------|
--------------------------|--------------------------|--------------------|
--5--5--5--5--5--5--5--5--|--7--7--7--7--7--7--7--7--|--7-----------------|
--5--5--5--5--5--5--5--5--|--7--7--7--7--7--7--7--7--|--7-----------------|
--3--3--3--3--3--3--3--3--|--5--5--5--5--5--5--5--5--|--5-----------------|



--------------------------|--------------------------|--------------------------|
--------------------------|--------------------------|--------------------------|
--------------------------|--------------------------|--------------------------|
--7--7--7--7--7--7--7--7--|--4--4--4--4--4--4--4--4--|--7--7--7--7--7--7--7--7--|
--5--5--5--5--5--5--5--5--|--2--2--2--2--2--2--2--2--|--5--5--5--5--5--5--5--5--|
--------------------------|--------------------------|--------------------------|



--------------------------|--------------------------|--------------------------|
--------------------------|--------------------------|--------------------------|
--------------------------|--------------------------|--------------------------|
--4--4--4--4--4--4--4--4--|--7--7--7--7--7--7--7--7--|--4--4--4--4--4--4--4--4--|
--2--2--2--2--2--2--2--2--|--5--5--5--5--5--5--5--5--|--2--2--2--2--2--2--2--2--|
--------------------------|--------------------------|--------------------------|


 
--------------------------|--------------------------|--------------------------|
--------------------------|--------------------------|--------------------------|
--------------------------|--------------------------|--------------------------|
--5--5--5--5--5--5--5--5--|--7--7--7--7--7--7--7--7--|--7--7--7--7--7--7--7--7--|
--5--5--5--5--5--5--5--5--|--7--7--7--7--7--7--7--7--|--5--5--5--5--5--5--5--5--|
--3--3--3--3--3--3--3--3--|--5--5--5--5--5--5--5--5--|--------------------------|



--------------------|--------------------------|--------------------------|
--------------------|--------------------------|--------------------------|
--------------------|--------------------------|--------------------------|
--7-----------------|--7--7--7--7--7--7--7--7--|--4--4--4--4--4--4--4--4--|
--5-----------------|--5--5--5--5--5--5--5--5--|--2--2--2--2--2--2--2--2--|
--------------------|--------------------------|--------------------------|



--------------------------|--------------------------|--------------------------|
--------------------------|--------------------------|--------------------------|
--------------------------|--------------------------|--------------------------|
--7--7--7--7--7--7--7--7--|--4--4--4--4--4--4--4--4--|--7--7--7--7--7--7--7--7--|
--5--5--5--5--5--5--5--5--|--2--2--2--2--2--2--2--2--|--5--5--5--5--5--5--5--5--|
--------------------------|--------------------------|--------------------------|



--------------------------|--------------------------|--------------------------|
--------------------------|--------------------------|--------------------------|
--------------------------|--------------------------|--------------------------|
--4--4--4--4--4--4--4--4--|--5--5--5--5--5--5--5--5--|--7--7--7--7--7--7--7--7--|
--2--2--2--2--2--2--2--2--|--5--5--5--5--5--5--5--5--|--7--7--7--7--7--7--7--7--|
--------------------------|--3--3--3--3--3--3--3--3--|--5--5--5--5--5--5--5--5--|


  
--------------------------|--------------------------|--------------------------|
--------------------------|--------------------------|--------------------------|
--------------------------|--------------------------|--------------------------|
--5--5--5--5--5--5--5--5--|--7--7--7--7--7--7--7--7--|--7--7--7--7--7--7--7--7--|
--5--5--5--5--5--5--5--5--|--7--7--7--7--7--7--7--7--|--5--5--5--5--5--5--5--5--|
--3--3--3--3--3--3--3--3--|--5--5--5--5--5--5--5--5--|--------------------------|


  
--------------------|--------------------------|--------------------------|
--------------------|--------------------------|--------------------------|
--------------------|--4--4--4--4--4--4--4--4--|--3--3--3--3--3--3--3--3--|
--7-----------------|--5--5--5--5--5--5--5--5--|--5--5--5--5--5--5--5--5--|
--5-----------------|--5--5--5--5--5--5--5--5--|--5--5--5--5--5--5--5--5--|
--------------------|--3--3--3--3--3--3--3--3--|--3--3--3--3--3--3--3--3--|



--------------------------|--------------------------|--------------------------|
--------------------------|--------------------------|--------------------------|
--------------------------|--------------------------|--4--4--4--4--4--4--4--4--|
--7--7--7--7--7--7--7--7--|--7--7--7--7--7--7--7--7--|--5--5--5--5--5--5--5--5--|
--5--5--5--5--5--5--5--5--|--5--5--5--5--5--5--5--5--|--5--5--5--5--5--5--5--5--|
--------------------------|--------------------------|--3--3--3--3--3--3--3--3--|



--------------------------|--------------------------|--------------------------|
--------------------------|--------------------------|--------------------------|
--3--3--3--3--3--3--3--3--|--------------------------|--------------------------|
--5--5--5--5--5--5--5--5--|--7--7--7--7--7--7--7--7--|--7--7--7--7--7--7--7--7--|
--5--5--5--5--5--5--5--5--|--7--7--7--7--7--7--7--7--|--7--7--7--7--7--7--7--7--|
--3--3--3--3--3--3--3--3--|--5--5--5--5--5--5--5--5--|--5--5--5--5--5--5--5--5--|



--------------------------|--------------------------|--------------------------|
--------------------------|--------------------------|--------------------------|
--------------------------|--------------------------|--------------------------|
--7--7--7--7--7--7--7--7--|--4--4--4--4--4--4--4--4--|--7--7--7--7--7--7--7--7--|
--5--5--5--5--5--5--5--5--|--2--2--2--2--2--2--2--2--|--5--5--5--5--5--5--5--5--|
--------------------------|--------------------------|--------------------------|



--------------------------|--------------------------|--------------------------|
--------------------------|--------------------------|--------------------------|
--------------------------|--------------------------|--------------------------|
--4--4--4--4--4--4--4--4--|--7--7--7--7--7--7--7--7--|--4--4--4--4--4--4--4--4--|
--2--2--2--2--2--2--2--2--|--5--5--5--5--5--5--5--5--|--2--2--2--2--2--2--2--2--|
--------------------------|--------------------------|--------------------------|


--------------------------|--------------------------|--------------------------|
--------------------------|--------------------------|--------------------------|
--------------------------|--------------------------|--------------------------|
--5--5--5--5--5--5--5--5--|--7--7--7--7--7--7--7--7--|--5--5--5--5--5--5--5--5--|
--5--5--5--5--5--5--5--5--|--7--7--7--7--7--7--7--7--|--5--5--5--5--5--5--5--5--|
--3--3--3--3--3--3--3--3--|--5--5--5--5--5--5--5--5--|--3--3--3--3--3--3--3--3--|



--------------------------|--------------------------|--------------------------|
--------------------------|--------------------------|--------------------------|
--------------------------|--------------------------|--------------------------|
--7--7--7--7--7--7--7--7--|--5--5--5--5--5--5--5--5--|--7--7--7--7--7--7--7--7--|
--7--7--7--7--7--7--7--7--|--5--5--5--5--5--5--5--5--|--7--7--7--7--7--7--7--7--|
--5--5--5--5--5--5--5--5--|--3--3--3--3--3--3--3--3--|--5--5--5--5--5--5--5--5--|



--------------------------|--------------------|------------------------|
--------------------------|--------------------|------------------------|
--------------------------|--------------------|------------------------|
--7--7--7--7--7--7--7--7--|--7-----------------|--7----0--7----0--7--0--|
--5--5--5--5--5--5--5--5--|--5-----------------|--5----0--5----0--5--0--|
--------------------------|--------------------|------------------------|



------------------------|------------------------|------------------------|
------------------------|------------------------|------------------------|
------------------------|------------------------|------------------------|
--4----0--4----0--4--6--|--7----0--7----0--7--0--|--4----0--4----0--4--6--|
--2----0--2----0--2--4--|--5----0--5----0--5--0--|--2----0--2----0--2--4--|
------------------------|------------------------|------------------------|



------------------------|------------------------|--------------------------|
------------------------|------------------------|--------------------------|
------------------------|------------------------|--------------------------|
--7----0--7----0--7--0--|--4----0--4----0--4--6--|--5--5--5--5--5--5--5--5--|
--5----0--5----0--5--0--|--2----0--2----0--2--4--|--5--5--5--5--5--5--5--5--|
------------------------|------------------------|--3--3--3--3--3--3--3--3--|



--------------------------|--------------------------|--------------------------|
--------------------------|--------------------------|--------------------------|
--------------------------|--------------------------|--------------------------|
--7--7--7--7--7--7--7--7--|--5--5--5--5--5--5--5--5--|--7--7--7--7--7--7--7--7--|
--7--7--7--7--7--7--7--7--|--5--5--5--5--5--5--5--5--|--7--7--7--7--7--7--7--7--|
--5--5--5--5--5--5--5--5--|--3--3--3--3--3--3--3--3--|--5--5--5--5--5--5--5--5--|


--------------------------|--------------------|--------------------------|
--------------------------|--------------------|--------------------------|
--------------------------|--------------------|--4--4--4--4--4--4--4--4--|
--7--7--7--7--7--7--7--7--|--7-----------------|--5--5--5--5--5--5--5--5--|
--5--5--5--5--5--5--5--5--|--5-----------------|--5--5--5--5--5--5--5--5--|
--------------------------|--------------------|--3--3--3--3--3--3--3--3--|



--------------------------|--------------------------|--------------------------|
--------------------------|--------------------------|--------------------------|
--3--3--3--3--3--3--3--3--|--------------------------|--------------------------|
--5--5--5--5--5--5--5--5--|--7--7--7--7--7--7--7--7--|--7--7--7--7--7--7--7--7--|
--5--5--5--5--5--5--5--5--|--5--5--5--5--5--5--5--5--|--5--5--5--5--5--5--5--5--|
--3--3--3--3--3--3--3--3--|--------------------------|--------------------------|



--------------------------|--------------------------|--------------------------|
--------------------------|--------------------------|--------------------------|
--4--4--4--4--4--4--4--4--|--3--3--3--3--3--3--3--3--|--------------------------|
--5--5--5--5--5--5--5--5--|--5--5--5--5--5--5--5--5--|--7--7--7--7--7--7--7--7--|
--5--5--5--5--5--5--5--5--|--5--5--5--5--5--5--5--5--|--7--7--7--7--7--7--7--7--|
--3--3--3--3--3--3--3--3--|--3--3--3--3--3--3--3--3--|--5--5--5--5--5--5--5--5--|



-------------------------|--------------------------|--------------------------|
-------------------------|--------------------------|--------------------------|
-------------------------|--4--4--4--4--4--4--4--4--|--3--3--3--3--3--3--3--3--|
--7--7--7--7--7---7---6--|--5--5--5--5--5--5--5--5--|--5--5--5--5--5--5--5--5--|
--7--7--7--7--7---7---6--|--5--5--5--5--5--5--5--5--|--5--5--5--5--5--5--5--5--|
--5--5--5--5--5---5---4--|--3--3--3--3--3--3--3--3--|--3--3--3--3--3--3--3--3--|



--------------------------|--------------------------|--------------------------|
--------------------------|--------------------------|--------------------------|
--------------------------|--------------------------|--4--4--4--4--4--4--4--4--|
--7--7--7--7--7--7--7--7--|--7--7--7--7--7--7--7--7--|--5--5--5--5--5--5--5--5--|
--5--5--5--5--5--5--5--5--|--5--5--5--5--5--5--5--5--|--5--5--5--5--5--5--5--5--|
--------------------------|--------------------------|--3--3--3--3--3--3--3--3--|



--------------------------|--------------------------|--------------------------|
--------------------------|--------------------------|--------------------------|
--3--3--3--3--3--3--3--3--|--------------------------|--------------------------|
--5--5--5--5--5--5--5--5--|--7--7--7--7--7--7--7--7--|--7--7--7--7--7--7--7--7--|
--5--5--5--5--5--5--5--5--|--7--7--7--7--7--7--7--7--|--7--7--7--7--7--7--7--7--|
--3--3--3--3--3--3--3--3--|--5--5--5--5--5--5--5--5--|--5--5--5--5--5--5--5--5--|



--------------------------|--------------------|--------------------------|
--------------------------|--------------------|--------------------------|
--------------------------|--------------------|--------------------------|
--7--7--7--7--7--7--7--7--|--7-----------------|--7--7--7--7--7--7--7--7--|
--7--7--7--7--7--7--7--7--|--7-----------------|--5--5--5--5--5--5--5--5--|
--5--5--5--5--5--5--5--5--|--5-----------------|--------------------------|



--------------------------|--------------------------|--------------------------|
--------------------------|--------------------------|--------------------------|
--------------------------|--------------------------|--------------------------|
--4--4--4--4--4--4--4--4--|--7--7--7--7--7--7--7--7--|--4--4--4--4--4--4--4--4--|
--2--2--2--2--2--2--2--2--|--5--5--5--5--5--5--5--5--|--2--2--2--2--2--2--2--2--|
--------------------------|--------------------------|--------------------------|



--------------------------|--------------------------|--------------------------|
--------------------------|--------------------------|--------------------------|
--------------------------|--------------------------|--------------------------|
--7--7--7--7--7--7--7--7--|--4--4--4--4--4--4--4--4--|--5--5--5--5--5--5--5--5--|
--5--5--5--5--5--5--5--5--|--2--2--2--2--2--2--2--2--|--5--5--5--5--5--5--5--5--|
--------------------------|--------------------------|--3--3--3--3--3--3--3--3--|



--------------------------|--------------------------|--------------------------|
--------------------------|--------------------------|--------------------------|
--------------------------|--------------------------|--------------------------|
--7--7--7--7--7--7--7--7--|--5--5--5--5--5--5--5--5--|--7--7--7--7--7--7--7--7--|
--7--7--7--7--7--7--7--7--|--5--5--5--5--5--5--5--5--|--7--7--7--7--7--7--7--7--|
--5--5--5--5--5--5--5--5--|--3--3--3--3--3--3--3--3--|--5--5--5--5--5--5--5--5--|



--------------------------|--------------------------|--------------------------|
--------------------------|--------------------------|--------------------------|
--------------------------|--------------------------|--------------------------|
--5--5--5--5--5--5--5--5--|--7--7--7--7--7--7--7--7--|--5--5--5--5--5--5--5--5--|
--5--5--5--5--5--5--5--5--|--7--7--7--7--7--7--7--7--|--5--5--5--5--5--5--5--5--|
--3--3--3--3--3--3--3--3--|--5--5--5--5--5--5--5--5--|--3--3--3--3--3--3--3--3--|


                                                      BASS 02.54
--------------------------|--------------------------|--------------------|---------------|
--------------------------|--------------------------|--------------------|---------------|
--------------------------|--------------------------|--------------------|---------------|
--7--7--7--7--7--7--7--7--|--7--7--7--7--7--7--7--7--|--7-----------------|---------------|
--7--7--7--7--7--7--7--7--|--5--5--5--5--5--5--5--5--|--5-----------------|---------------|
--5--5--5--5--5--5--5--5--|--------------------------|--------------------|---------------|



---------------|---------------|---------------|--5----------------|--7----------------|
---------------|---------------|---------------|--7----------------|--7----------------|
---------------|---------------|---------------|--7----------------|--7----------------|
---------------|---------------|---------------|--7----------------|-------------------|
---------------|---------------|---------------|-------------------|-------------------|
---------------|---------------|---------------|-------------------|-------------------|


 
--5----------------|--7----------------|--5----------------|--7----------------|
--7----------------|--7----------------|--7----------------|--7----------------|
--7----------------|--7----------------|--7----------------|--7----------------|
--7----------------|-------------------|--7----------------|-------------------|
-------------------|-------------------|-------------------|-------------------|
-------------------|-------------------|-------------------|-------------------|



--5----------------|--7----------------|--5----------------|--7----------------|
--7----------------|--7----------------|--7----------------|--7----------------|
--7----------------|--7----------------|--7----------------|--7----------------|
--7----------------|-------------------|--7----------------|-------------------|
-------------------|-------------------|-------------------|-------------------|
-------------------|-------------------|-------------------|-------------------|



--5----------------|--7----------------|--5----------------|--7----------------|
--7----------------|--7----------------|--7----------------|--7----------------|
--7----------------|--7----------------|--7----------------|--7----------------|
--7----------------|-------------------|--7----------------|-------------------|
-------------------|-------------------|-------------------|-------------------|
-------------------|-------------------|-------------------|-------------------|



--5----------------|--7----------------|--5----------------|--7----------------|
--7----------------|--7----------------|--7----------------|--7----------------|
--7----------------|--7----------------|--7----------------|--7----------------|
--7----------------|-------------------|--7----------------|-------------------|
-------------------|-------------------|-------------------|-------------------|
-------------------|-------------------|-------------------|-------------------|



--5----------------|--7----------------|--5----------------|--7----------------|
--7----------------|--7----------------|--7----------------|--7----------------|
--7----------------|--7----------------|--7----------------|--7----------------|
--7----------------|-------------------|--7----------------|-------------------|
-------------------|-------------------|-------------------|-------------------|
-------------------|-------------------|-------------------|-------------------|



--5----------------|--7----------------|--5----------------|--7----------------|
--7----------------|--7----------------|--7----------------|--7----------------|
--7----------------|--7----------------|--7----------------|--7----------------|
--7----------------|-------------------|--7----------------|-------------------|
-------------------|-------------------|-------------------|-------------------|
-------------------|-------------------|-------------------|-------------------|


--5----------------|--7----------------|--------------------------|--------------------------|
--7----------------|--7----------------|--------------------------|--------------------------|
--7----------------|--7----------------|--------------------------|--------------------------|
--7----------------|-------------------|--7--7--7--7--7--7--7--7--|--4--4--4--4--4--4--4--4--|
-------------------|-------------------|--5--5--5--5--5--5--5--5--|--2--2--2--2--2--2--2--2--|
-------------------|-------------------|--------------------------|--------------------------|



--------------------------|--------------------------|--------------------------|
--------------------------|--------------------------|--------------------------|
--------------------------|--------------------------|--------------------------|
--7--7--7--7--7--7--7--7--|--4--4--4--4--4--4--4--4--|--7--7--7--7--7--7--7--7--|
--5--5--5--5--5--5--5--5--|--2--2--2--2--2--2--2--2--|--5--5--5--5--5--5--5--5--|
--------------------------|--------------------------|--------------------------|



--------------------------|--------------------------|--------------------------|
--------------------------|--------------------------|--------------------------|
--------------------------|--------------------------|--------------------------|
--4--4--4--4--4--4--4--4--|--7--7--7--7--7--7--7--7--|--4--4--4--4--4--4--4--4--|
--2--2--2--2--2--2--2--2--|--5--5--5--5--5--5--5--5--|--2--2--2--2--2--2--2--2--|
--------------------------|--------------------------|--------------------------|


--------------------------|--------------------------|--------------------------|
--------------------------|--------------------------|--------------------------|
--------------------------|--------------------------|--------------------------|
--7--7--7--7--7--7--7--7--|--4--4--4--4--4--4--4--4--|--7--7--7--7--7--7--7--7--|
--5--5--5--5--5--5--5--5--|--2--2--2--2--2--2--2--2--|--5--5--5--5--5--5--5--5--|
--------------------------|--------------------------|--------------------------|



--------------------------|--------------------------|--------------------------|
--------------------------|--------------------------|--------------------------|
--------------------------|--------------------------|--------------------------|
--4--4--4--4--4--4--4--4--|--7--7--7--7--7--7--7--7--|--4--4--4--4--4--4--4--4--|
--2--2--2--2--2--2--2--2--|--5--5--5--5--5--5--5--5--|--2--2--2--2--2--2--2--2--|
--------------------------|--------------------------|--------------------------|



--------------------------|--------------------------|--------------------------|
--------------------------|--------------------------|--------------------------|
--------------------------|--------------------------|--------------------------|
--7--7--7--7--7--7--7--7--|--4--4--4--4--4--4--4--4--|--5--5--5--5--5--5--5--5--|
--5--5--5--5--5--5--5--5--|--2--2--2--2--2--2--2--2--|--5--5--5--5--5--5--5--5--|
--------------------------|--------------------------|--3--3--3--3--3--3--3--3--|



--------------------------|--------------------------|--------------------------|
--------------------------|--------------------------|--------------------------|
--------------------------|--------------------------|--------------------------|
--7--7--7--7--7--7--7--7--|--5--5--5--5--5--5--5--5--|--7--7--7--7--7--7--7--7--|
--7--7--7--7--7--7--7--7--|--5--5--5--5--5--5--5--5--|--7--7--7--7--7--7--7--7--|
--5--5--5--5--5--5--5--5--|--3--3--3--3--3--3--3--3--|--5--5--5--5--5--5--5--5--|



--------------------------|--------------------------|--------------------------|
--------------------------|--------------------------|--------------------------|
--------------------------|--------------------------|--------------------------|
--5--5--5--5--5--5--5--5--|--7--7--7--7--7--7--7--7--|--5--5--5--5--5--5--5--5--|
--5--5--5--5--5--5--5--5--|--7--7--7--7--7--7--7--7--|--5--5--5--5--5--5--5--5--|
--3--3--3--3--3--3--3--3--|--5--5--5--5--5--5--5--5--|--3--3--3--3--3--3--3--3--|


  
--------------------------|--------------------------|---------------------||
--------------------------|--------------------------|---------------------||
--------------------------|--------------------------|---------------------||
--7--7--7--7--7--7--7--7--|--7--7--7--7--7--7--7--7--|--7---------------7--||
--7--7--7--7--7--7--7--7--|--5--5--5--5--5--5--5--5--|--5---------------5--||
--5--5--5--5--5--5--5--5--|--------------------------|---------------------||




00.07
hanya gitar 1.......      
G||-------|-------|-------|-------|--------------------------|--------------------------|
D||-------|-------|-------|-------|--------------------------|--------------------------|
A||-------|-------|-------|-------|--5--5--5--5--5--5--5--5--|--5--5--5--5--5--5--5--5--|
E||-------|-------|-------|-------|--------------------------|--------------------------|


--------------------------|--------------------|------------------------|
--------------------------|--------------------|------------------------|
--5--5--5--5--5--5--5--5--|--5-----------------|--5----0--5----0--5--0--|
--------------------------|--------------------|------------------------|



------------------------|------------------------|------------------------|
------------------------|------------------------|------------------------|
--2----0--2----0--2--4--|--5----0--5----0--5--0--|--2----0--2----0--2--4--|
------------------------|------------------------|------------------------|



------------------------|------------------------|--------------------------|
------------------------|------------------------|--------------------------|
--5----0--5----0--5--0--|--2----0--2----0--2--4--|--------------------------|
------------------------|------------------------|--3--3--3--3--3--3--3--3--|



--------------------------|--------------------|--------------------------|
--------------------------|--------------------|--------4--4--7--7--4-----|
--------------------------|--------------------|--5--5-----------------5--|
--5--5--5--5--5--5--5--5--|--5-----------------|--------------------------|



--------------------------|--------------------------|--------------------------|
--------0--0--4--4--0-----|--------4--4--7--7--4-----|--------0--0--4--4--0-----|
--2--2-----------------2--|--5--5-----------------5--|--2--2-----------------2--|
--------------------------|--------------------------|--------------------------|



--------------------------|--------------------------|--------------------------|
--------4--4--7--7--4-----|--------0--0--4--4--0-----|--------------------------|
--5--5-----------------5--|--2--2-----------------2--|--------------------------|
--------------------------|--------------------------|--3--3--3--3--3--3--3--3--|



--------------------------|--------------------------|--------------------|
--------------------------|--------4--4--7--7--4-----|--------------------|
--------------------------|--5--5-----------------5--|--5-----------------|
--5--5--5--5--5--5--5--5--|--------------------------|--------------------|



--------------------------|--------------------------|--------------------------|
--------4--4--7--7--4-----|--------0--0--4--4--0-----|--------4--4--7--7--4-----|
--5--5-----------------5--|--2--2-----------------2--|--5--5-----------------5--|
--------------------------|--------------------------|--------------------------|



--------------------------|--------------------------|--------------------------|
--------0--0--4--4--0-----|--------4--4--7--7--4-----|--------0--0--4--4--0-----|
--2--2-----------------2--|--5--5-----------------5--|--2--2-----------------2--|
--------------------------|--------------------------|--------------------------|



--------------------------|--------------------------|--------------------------|
--------------------------|--------------------------|--------------------------|
--------------------------|--------------------------|--------------------------|
--3--3--3--3--3--3--3--3--|--5--5--5--5--5--5--5--5--|--3--3--3--3--3--3--3--3--|



--------------------------|--------------------------|--------------------|
--------------------------|--------4--4--7--7--4-----|--------------------|
--------------------------|--5--5-----------------5--|--5-----------------|
--5--5--5--5--5--5--5--5--|--------------------------|--------------------|



--------------------------|--------------------------|--------------------------|
--------------------------|--------------------------|--------4--4--7--7--4-----|
--------------------------|--------------------------|--5--5-----------------5--|
--3--3--3--3--3--3--3--3--|--3--3--3--3--3--3--3--3--|--------------------------|



--------------------------|--------------------------|--------------------------|
--------4--4--7--7--4-----|--------------------------|--------------------------|
--5--5-----------------5--|--------------------------|--------------------------|
--------------------------|--3--3--3--3--3--3--3--3--|--3--3--3--3--3--3--3--3--|



--------------------------|--------------------------|--------------------------|
--------------------------|--------------------------|--------4--4--7--7--4-----|
--------------------------|--------------------------|--5--5-----------------5--|
--5--5--5--5--5--5--5--5--|--5--5--5--5--5--5--5--5--|--------------------------|



--------------------------|--------------------------|--------------------------|
--------0--0--4--4--0-----|--------4--4--7--7--4-----|--------0--0--4--4--0-----|
--2--2-----------------2--|--5--5-----------------5--|--2--2-----------------2--|
--------------------------|--------------------------|--------------------------|



--------------------------|--------------------------|--------------------------|
--------4--4--7--7--4-----|--------0--0--4--4--0-----|--------------------------|
--5--5-----------------5--|--2--2-----------------2--|--------------------------|
--------------------------|--------------------------|--3--3--3--3--3--3--3--3--|



--------------------------|--------------------------|--------------------------|
--------------------------|--------------------------|--------------------------|
--------------------------|--------------------------|--------------------------|
--5--5--5--5--5--5--5--5--|--3--3--3--3--3--3--3--3--|--5--5--5--5--5--5--5--5--|



--------------------------|--------------------------|--------------------------|
--------------------------|--------------------------|--------4--4--7--7--4-----|
--------------------------|--------------------------|--5--5-----------------5--|
--3--3--3--3--3--3--3--3--|--5--5--5--5--5--5--5--5--|--------------------------|



--------------------|------------------------|------------------------|
--------------------|------------------------|------------------------|
--5-----------------|--5----0--5----0--5--0--|--2----0--2----0--2--4--|
--------------------|------------------------|------------------------|



------------------------|------------------------|------------------------|
------------------------|------------------------|------------------------|
--5----0--5----0--5--0--|--2----0--2----0--2--4--|--5----0--5----0--5--0--|
------------------------|------------------------|------------------------|


 
------------------------|--------------------------|--------------------------|
------------------------|--------------------------|--------------------------|
--2----0--2----0--2--4--|--------------------------|--------------------------|
------------------------|--3--3--3--3--3--3--3--3--|--5--5--5--5--5--5--5--5--|



--------------------------|--------------------------|--------------------------|
--------------------------|--------------------------|--------4--4--7--7--4-----|
--------------------------|--------------------------|--5--5-----------------5--|
--3--3--3--3--3--3--3--3--|--5--5--5--5--5--5--5--5--|--------------------------|



--------------------|--------------------------|--------------------------|
--------------------|--------------------------|--------------------------|
--5-----------------|--------------------------|--------------------------|
--------------------|--3--3--3--3--3--3--3--3--|--3--3--3--3--3--3--3--3--|



--------------------------|--------------------------|--------------------------|
--------4--4--7--7--4-----|--------4--4--7--7--4-----|--------------------------|
--5--5-----------------5--|--5--5-----------------5--|--------------------------|
--------------------------|--------------------------|--3--3--3--3--3--3--3--3--|



--------------------------|--------------------------|-------------------------|
--------------------------|--------------------------|-------------------------|
--------------------------|--------------------------|-------------------------|
--3--3--3--3--3--3--3--3--|--5--5--5--5--5--5--5--5--|--5--5--5--5--5---5---4--|



--------------------------|--------------------------|--------------------------|
--------------------------|--------------------------|--------4--4--7--7--4-----|
--------------------------|--------------------------|--5--5-----------------5--|
--3--3--3--3--3--3--3--3--|--3--3--3--3--3--3--3--3--|--------------------------|


 
--------------------------|--------------------------|--------------------------|
--------4--4--7--7--4-----|--------------------------|--------------------------|
--5--5-----------------5--|--------------------------|--------------------------|
--------------------------|--3--3--3--3--3--3--3--3--|--3--3--3--3--3--3--3--3--|



--------------------------|--------------------------|--------------------------|
--------------------------|--------------------------|--------------------------|
--------------------------|--------------------------|--------------------------|
--5--5--5--5--5--5--5--5--|--5--5--5--5--5--5--5--5--|--5--5--5--5--5--5--5--5--|


 
--------------------|--------------------------|--------------------------|
--------------------|--------4--4--7--7--4-----|--------0--0--4--4--0-----|
--------------------|--5--5-----------------5--|--2--2-----------------2--|
--5-----------------|--------------------------|--------------------------|



--------------------------|--------------------------|--------------------------|
--------4--4--7--7--4-----|--------0--0--4--4--0-----|--------4--4--7--7--4-----|
--5--5-----------------5--|--2--2-----------------2--|--5--5-----------------5--|
--------------------------|--------------------------|--------------------------|


 
--------------------------|--------------------------|--------------------------|
--------0--0--4--4--0-----|--------------------------|--------------------------|
--2--2-----------------2--|--------------------------|--------------------------|
--------------------------|--3--3--3--3--3--3--3--3--|--5--5--5--5--5--5--5--5--|



--------------------------|--------------------------|--------------------------|
--------------------------|--------------------------|--------------------------|
--------------------------|--------------------------|--------------------------|
--3--3--3--3--3--3--3--3--|--5--5--5--5--5--5--5--5--|--3--3--3--3--3--3--3--3--|



--------------------------|--------------------------|--------------------------|
--------------------------|--------------------------|--------------------------|
--------------------------|--------------------------|--------------------------|
--5--5--5--5--5--5--5--5--|--3--3--3--3--3--3--3--3--|--5--5--5--5--5--5--5--5--|



--------------------------|--------------------|------------------------|
--------4--4--7--7--4-----|--------------------|------------------------|
--5--5-----------------5--|--5-----------------|--5--5----0--5--5----0--|
--------------------------|--------------------|------------------------|



------------------------|------------------------|------------------------|
------------------------|------------------------|------------------------|
--2--2----0--2--2----0--|--5--5----0--5--5----0--|--2--2----0--2--2----0--|
------------------------|------------------------|------------------------|



------------------------|------------------------|------------------------|
------------------------|------------------------|------------------------|
--5--5----0--5--5----0--|--2--2----0--2--2----0--|--5--5----0--5--5----0--|
------------------------|------------------------|------------------------|



------------------------|------------------------|------------------------|
------------------------|------------------------|------------------------|
--2--2----0--2--2----0--|--5--5----0--5--5----0--|--2--2----0--2--2----0--|
------------------------|------------------------|------------------------|



------------------------|------------------------|------------------------|
------------------------|------------------------|------------------------|
--5--5----0--5--5----0--|--2--2----0--2--2----0--|--5--5





Comments


Popular The Changcuters tabs & chords
Hijrah Ke London Chords
Hijrah Ke London 1 Chords
Racun Dunia Chords
Hijrah Ke London Tabs
I Love U Bibeh Intro Tabs
Maen Serong Tabs
Pria Idaman Wanita Tabs
Main Serong Ukulele
Parampampam Ukulele
Racun Dunia Ukulele


Song lyrics



↑ Back to top | Tablatures and chords are parodies/interpretations of the original songs. You may use it for private study, scholarship, research or language learning purposes only
© 2014 AZChords.com Contact us | Privacy policy | DMCA | Add/correct tabs | Request tabs | Top 50 tabs