» » »

Hijrah Ke London Tabs (ver.1)

Artists:  A B C D E F G H I J K L M N O P Q R S T U V W X Y Z # 

Hijrah Ke London Tabs (ver.1)

The Changcuters
Rating:
0/5 (0 votes)

Tabs too difficult? Try these video lessons and learn fast.
                Legend: ~ = vibrato
        s = slide
you can add some slide at some part of this tab.

Enjoy :)



1)
 A                   C#m               Bm                    Dm
----------------------------------------------------------------------------|
----------------------------------------------------------------------------|
-4--6--6--4--6--4--6--6--7--7--6--7--6--7--7--9--9--7--9--7--9--10--10--10--|
----------------------------------------------------------------------------|
----------------------------------------------------------------------------|
----------------------------------------------------------------------------|

----------------|
----------------|
-10--9--7-------|
----------------|
----------------|

Do it for 2 times, and then...........

2)  A                              C#m              Bm             Dm
-----------------------------9-------------------7----------------------------|
----9--10--10--10--------10-----10--9~-9~-9--10-----10--9--7~---9--10--10--10-|
------------------------------------------------------------------------------|
------------------------------------------------------------------------------|
------------------------------------------------------------------------------|
------------------------------------------------------------------------------|

--7--------|
-----10--9-|
-----------|
-----------|
-----------|
-----------|

3)
   A                      C#m             Bm              Dm
------------------------9--------------7------------------------------7----7-|
---9--10--10--10-----10---9~-9~--9--10----10--9--7~----9--10--10--10----10---|
-----------------------------------------------------------------------------|
-----------------------------------------------------------------------------|
-----------------------------------------------------------------------------|
-----------------------------------------------------------------------------|
  Bm
--7s9~----|
----------|
----------|
----------|
----------|
----------|
            
Tabs too difficult? Try these video lessons and learn fast.




comments powered by Disqus
↑ Back to top | Tablatures and chords are parodies/interpretations of the original songs. You may use it for private study, scholarship, research or language learning purposes only