» » »

Zzzzz Bass tabs (ver.1)

Artists:  A B C D E F G H I J K L M N O P Q R S T U V W X Y Z # 

Zzzzz Bass tabs (ver.1)

The Cab
Rating:
5/5 (1 vote)

Hard to play? Try these video lessons and learn fast.
                -------------------------------------------------------------------------------
-------------------------------------------------------------------------------


Tuning: Standard (EADG)

I tanscribed this from the guitar version of this song.


Intro x2  0:00

G|---------------------------------------|
D|---------------------------------------|
A|55555555-------------------------------|
E|--------55555555-77777777-33333333-----|


Verse Pt.1 x1  0:13

G|-----------------------------|
D|-----------------------------|
A|5----------------------------|
E|----5----2----3-3---3--3-----|


Verse Pt.2 x1  0:21

G|-----------------------------|
D|-----------------------------|
A|5----------------------------|
E|----5----7----3-3---3--3-----|


Verse Pt.3  x1 x1  0:21

G|---------------------------------------|
D|---------------------------------------|
A|55555555-------------------------------| Palm mute
E|--------55555555-22222222-33333333-----|


Verse Pt.4  x1  0:27

G|---------------------------------------|
D|---------------------------------------|
A|55555555-------------------------------| Palm mute
E|--------55555555-77777777-33333333-----|

Start to Release palm mute after you play G 
(3rd Fret on E string) 3 times


Pre-Chorus x1  0:41

G|----------------------------------|
D|----------------------------------|
A|-----------5-5--------------------|
E|3-3--5-----------5--5------3~-----|


Chorus x3  0:49

G|---------------------------------------|
D|---------------------------------------|
A|55555555-------------------------------|
E|--------55555555-77777777-33333333-----|


Post-Chorus x1  1:10

G|----------------------------------------------------|
D|----------------------------------------------------|
A|------------55-----------5-55555-5-5----------------|
E|77----33----------55--------------------5555555-----|
                             xxxxx        xxxxxxx  < (Palm mute)

Verse Pt. 1 x1  1:20
Verse Pt. 2 x1  1:28
Verse Pt. 3 x1  1:34
Verse Pt. 4 x1  1:40
Pre-Chorus x1  1:49
Chorus x3  1:57

Post-Chorus x1  2:17

G|-------------------------|
D|-------------------------|
A|------------55-----------|
E|77----33----------55-----|

Bridge

G|----------------------------------------|
D|----------------------------------------|  2:24
A|----------------------------------------|  x1
E|33333333-55555555-77777777-55555555-----|

G|--------------------------------------|
D|--------------------------------------|  2:31
A|-----------------5555555555555555-----|  x1
E|33333333-55555555---------------------|

G|----------------------------------------|
D|----------------------------------------|  2:38
A|----------------------------------------|  x1
E|33333333-55555555-77777777-55555555-----|

G|--------------------------------------|
D|--------------------------------------|  2:45
A|--------------------------------------|  x1
E|33333333-55555555-----3--3---5-5~-----|

Chorus x3  2:51

Post-Chorus x1  3:13

G|-----------------------------------------------|
D|-----------------------------------------------|
A|------------55---------------------------------|  x1
E|77----33----------55--------------------3~-----| G rings out until end

ENJOY


PEACE OUT


| /  slide up
| \  slide down
| h  hammer-on
| p  pull-off
| ~  vibrato
| +  harmonic
| x  Mute note
===============================================================================
            
Hard to play? Try these video lessons and learn fast. | Correct




comments powered by Disqus
↑ Back to top | Tablatures and chords are parodies/interpretations of the original songs. You may use it for private study, scholarship, research or language learning purposes only