» » »

The Cab, Zzzzz Tabs (ver.1)

Artists:  A B C D E F G H I J K L M N O P Q R S T U V W X Y Z # 

Zzzzz Tabs (ver.1)

The Cab Tabs
 Rating:
4.5/5 (8 votes)
Zzzzz lessons Tabs too difficult? Try these video lessons and learn fast
                hi everyone, this is my first tab, im pretty sure this is correct

This is Zzzzz by the cab from wisper wars
This is an AWSOME song to play along to and i do it all the time
this should be 100% correct

tuning: Standard (Both guitars)

.=palm mute
/=slide
~=let ring

Intro : (0:00)

e--------------------------------------------|
B--------------------------------------------|
G-----77777777-------------------------------|
D-----77777777-77777777-99999999-55555555----|    (x2)
A-----55555555-77777777-99999999-55555555----|
E--------------55555555-77777777-33333333----|

Verse: (0:13)

e--------------------------------------|
B--------------------------------------|
G-----7--------------------------------|
D-----7-----7-----4-----5-5---5--5-----|     (x1)
A-----5-----7-----4-----5-5---5--5-----|
E-----------5-----2-----3-3---3--3-----|

Verse Cont: (0:21) Slight change here

e--------------------------------------|
B--------------------------------------|
G-----7--------------------------------|
D-----7-----7-----9-----5-5---5--5-----|     (x1)
A-----5-----7-----9-----5-5---5--5-----|
E-----------5-----7-----3-3---3--3-----|

Verse Cont: (0:27) All of this is palm muted

e-------------------------------------------|
B-------------------------------------------|
G-----77777777------------------------------|
D-----77777777-77777777-44444444-55555555---|   (x1)
A-----55555555-77777777-44444444-55555555---|
E--------------55555555-22222222-33333333---|
      ........ ........ ........ ........

Verse Cont: (0:34) Another slight change

e-----------------------------------------|
B-----------------------------------------|
G-----77777777----------------------------|
D-----77777777-77777777-99999999-55555555-|
A-----55555555-77777777-99999999-55555555-|
E--------------55555555-77777777-33333333-|
      ........ ........ ........ . .  .
     start to release palm mute here^

Pre-chorus: (0:41)

e---------------------------------|
B---------------------------------|
G----------------7-7--------------|
D-----5-5--7-----7-7--7--7-----5~-|
A-----5-5--7-----5-5--7--7-----5~-|
E-----3-3--5----------5--5-----3~-|

Chorus: (0:50)

e--------------------------------------------|
B--------------------------------------------|
G-----77777777-------------------------------|
D-----77777777-77777777-99999999-55555555----|    (x3)
A-----55555555-77777777-99999999-55555555----|
E--------------55555555-77777777-33333333----|

There is a "Riff" that would be ^^here which i haven't figured out yet

Post Chorus: (1:10)

e---------------------------------|
B---------------------------------|
G---------------------7-7---------| (x1)
D-----9-9-----5-5-----7-7-----7-7-|
A-----9-9-----5-5-----5-5-----7-7-|
E-----7-7-----3-3-------------5-5-|

Post Chorus Cont: (1:17)

e------------------------------|
B------------------------------|
G-----7-7777-7-7---------------|
D-----7-7777-7-7-----7777777---|   (x1)
A-----5-5555-5-5-----7777777---|
E--------------------5555555---|
        ....         .......

Verse 2 Guitar 2: (1:20) Same as verse 1

e--------------------------------------|
B--------------------------------------|
G-----7--------------------------------|
D-----7-----7-----4-----5-5---5--5-----|     (x1)
A-----5-----7-----4-----5-5---5--5-----|
E-----------5-----2-----3-3---3--3-----|

Verse 2 Guitar 1 Cont(In correct time with guitar 2^)
e---------------------------------|
B------7-7-5-------7-7-8-7--------|
G------------7--------------------|
D---------------------------------|   (x1)
A---------------------------------|
E---------------------------------|

Verse 2 Cont Guitar 2: (1:28) Slight change here

e--------------------------------------|
B--------------------------------------|
G-----7--------------------------------|
D-----7-----7-----9-----5-5---5--5-----|     (x1)
A-----5-----7-----9-----5-5---5--5-----|
E-----------5-----7-----3-3---3--3-----|
The "Riff" would be ^^here

Verse 2 Cont Guitar 1 (In correct time with guitar 2^)
e---------------------------------|
B------7-7-5-------7-7-8-7--------|
G------------7--------------------|   (x1)
D---------------------------------|
A---------------------------------|
E---------------------------------|


Verse 2 Cont Guitar 2: (1:34) All of this is palm muted

e-------------------------------------------|
B-------------------------------------------|
G-----77777777------------------------------|
D-----77777777-77777777-44444444-55555555---|   (x1)
A-----55555555-77777777-44444444-55555555---|
E--------------55555555-22222222-33333333---|
      ........ ........ ........ ........

Verse Cont: (1:41) Another slight change

e-------------------------------------------|
B-------------------------------------------|
G-----77777777------------------------------|
D-----77777777-77777777-99999999-55555555---|   (x1)
A-----55555555-77777777-99999999-55555555---|
E--------------55555555-77777777-33333333---|
      ........ ........ ........ . .  .
     start to release palm mute here^

Pre-Chorus 2 (1:48) Same as before

e---------------------------------|
B---------------------------------|
G----------------7-7--------------|
D-----5-5--7-----7-7--7--7-----5~-|
A-----5-5--7-----5-5--7--7-----5~-|
E-----3-3--5----------5--5-----3~-|

Chorus 2 (1:57)

e--------------------------------------------|
B--------------------------------------------|
G-----77777777-------------------------------|
D-----77777777-77777777-99999999-55555555----|    (x3)
A-----55555555-77777777-99999999-55555555----|
E--------------55555555-77777777-33333333----|

Post Chorus 2 (2:17)

e---------------------------------|
B---------------------------------|
G---------------------7-7---------| (x1)
D-----9-9-----5-5-----7-7-----7-7-|
A-----9-9-----5-5-----5-5-----7-7-|
E-----7-7-----3-3-------------5-5-|

Bridge: (2:24) Listen to song for exact time here (it gets tricky)

e-----------------------------------------|
B-----------------------------------------|
G-----------------------------------------|
D-----55555555-77777777-99999999-77777777-|
A-----55555555-77777777-99999999-77777777-|
E-----33333333-55555555-77777777-55555555-|

Bridge Cont (2:31)
e----------------------------------------------------|
B----------------------------------------------------|
G-----------------------7777777777777777-------------|
D-----55555555-77777777-7777777777777777  < Thats 16-| strums
A-----55555555-77777777-5555555555555555-------------|
E-----33333333-55555555------------------------------|


Bridge Cont (2:38)

e-----------------------------------------|
B-----------------------------------------|
G-----------------------------------------|
D-----55555555-77777777-99999999-77777777-|
A-----55555555-77777777-99999999-77777777-|
E-----33333333-55555555-77777777-55555555-|

Bridge Cont:(2:45)
e---------------------------------------|
B---------------------------------------|
G---------------------------------------|
D-----55555555-77777777-----5--5---7-7~-|
A-----55555555-77777777-----5--5---7-7~-|
E-----33333333-55555555-----3--3---5-5~-|

Chorus 3:(2:52)

e--------------------------------------------|
B--------------------------------------------|
G-----77777777-------------------------------|
D-----77777777-77777777-99999999-55555555----|    (x3)
A-----55555555-77777777-99999999-55555555----|
E--------------55555555-77777777-33333333----|

Post Chorus: (3:13)

e--------------------------------      --------|
B--------------------------------      --------|
G---------------------7-7-------- (x1) --------|
D-----9-9-----5-5-----7-7-----7-7      -----5~-|
A-----9-9-----5-5-----5-5-----7-7      -----5~-|
E-----7-7-----3-3-------------5-5      -----3~-|
                                      ^^end on^^
            
Submit corrections

comments powered by Disqus
↑ Back to top | The Cab Tabs for Zzzzz. Lyrics for acoustic guitar and electric guitar. Tablatures and chords are parodies/interpretations of the original songs. You may use it for private study, scholarship, research or language learning purposes only