>
 >
This City Is Contagious

This City Is Contagious Bass Tabs

The Cab - This City Is Contagious chords, tabs, tablatures, lyrics

Guitar lessons | Add/correct | Request | Top 50 tabs Artists:  A B C D E F G H I J K L M N O P Q R S T U V W X Y Z 0-9

This City Is Contagious Bass Tabs – The Cab

CD, Sheet music, Poster

Do you like This City Is Contagious? Share with your friends now
Bass TabsChordsTabsUkulele
-------------------------------------------------------------------------------
-------------------------------------------------------------------------------


Tuning: Drop D (DADG)


Verse x4

G|------------------------------|
D|------------------------------|
A|55-----44--22--00-------------|
D|-----------------5--5-4-5-4-0-|


Pre-Chorus x1

G|----------------------------|
D|----------------------------|
A|5555555555555555-77777777-7-|
D|----------------------------|


Chorus 

G|-----------------------------------|
D|-----------------------------------|
A|55555555---------------------------| x2
D|--------55555555-99999999-77777777-|

G|-----------------------------------|
D|-----------------------------------|
A|-----------------------------------| x1
D|55555555-44444444-77777777-9-9-7-7-|

G|----------------------------|
D|----------------------------|
A|----------------------------|
D|5555555555555555-77777777-7-|

Verse x5
Pre-Chorus x1
Chorus


Bridge

G|-----------------------------------------------------|
D|-----------------------------------------------------|
A|5--(Play that note from 2:17 until 2:43, & palm mute-|
D|-----------------------------------------------------|

G|--------------------------------------------------------------------|
D|--------------------------------------------------------------------|
A|--------------------------------------------------------------------|
D|9~---9~--9-9-9-9-7~---7~--7-7-7-7-5~---5~--5-5-5-5-7~---7~--7-7-7-7-|

G|-------------------------------------------------------------|
D|-------------------------------------------------------------|
A|-------------------------------------------------------------|
D|9~---9~--9-9-9-9-7~---7~--7-7-7-7-5~---5~--5-5-5-5-7-7-7-7-7-|


Then play the chorus and you're done


| /  slide up
| \  slide down
| h  hammer-on
| p  pull-off
| ~  vibrato
| +  harmonic
| x  Mute note
===============================================================================





Comments


Popular The Cab tabs & chords
Angel With A Shotgun 3 Chords
Bounce Chords
Falling Up Chords
La La 2 Chords
Zzzzz Chords
This City Is Contagious Tabs
Zzzzz Tabs
Ill Run 2 Ukulele
La La Ukulele
Vegas Skies Ukulele


Song lyrics



↑ Back to top | Tablatures and chords are parodies/interpretations of the original songs. You may use it for private study, scholarship, research or language learning purposes only
© 2014 AZChords.com Contact us | Privacy policy | DMCA | Add/correct tabs | Request tabs | Top 50 tabs