>
 >
Risky Business

Risky Business Guitar Tabs

The Cab - Risky Business chords, tabs, tablatures, lyrics

Guitar lessons | Add/correct | Request | Top 50 tabs Artists:  A B C D E F G H I J K L M N O P Q R S T U V W X Y Z 0-9

Risky Business Guitar Tabs – The Cab

CD, Sheet music, Poster

Do you like Risky Business? Share with your friends now
ChordsTabsUkulele
----------------------------------------------------------------------------
                             Risky Business- The Cab
----------------------------------------------------------------------------


Tuning: drop D



intro ( this is at the end part when he says "stop asking, keep dancing)




e|----------------------|
B|----------------------|
G|----------------------|
D|---3-3--5-5-----------|
A|---3-3--5-5-----------|
D|---3-3--5-5-----------|



verse

e|----------------------------------------------------------------|
B|----------------------------------------------------------------|
G|----------------------------------------------------------------|repeat2x 
D|--5-7--7--7---------------5-7--7--7-------3-3-3--5-5-5---7-7-7--|
A|--5-7--7--7---------------5-7--7--7-------3-3-3--5-5-5---7-7-7--|
D|--5-7--7--7---------------5-7--7--7-------3-3-3--5-5-5---7-7-7--|


prechorus (no guitar)

this is the part the piano plays just so you have something to play here

e|---------------|
B|---13----------|
G|------10-9-10--| repeat 4x
D|---------------|
A|---------------|
D|---------------|


chorus
e|-------------------------------------------------------------------------|
B|-------------------------------------------------------------------------|
G|----------------------------------5--------------------------------------|
D|-7------5-----3------5-----7------5-8x---3-3---5-5-----------------------|
A|-7-12x--5-4x--3-12x--5-4x--7-8x---3------3-3---5-5-----------------------|
D|-7------5-----3------5-----7-------------3-3---5-5-----------------------|


repeat verse

2nd prechorus

e|--------|
B|--------|
G|--------|
D|--3-----|
A|--3-8x--|
D|--3-----|

2nd chorus

e|-------------------------------------------------------------------|
B|-------------------------------------------------------------------|
G|---------------------------------------------------5---------------|
D|-7-----5----3-----5-----7-----5----3-----5----7----5-8x--3----5----|
A|-7-12x-5-4x-3-12x-5-4x--7-12x-5-4x-3-12x-5-4x-7-8x-3-----3-8x-5-8x-|
D|-7-----5----3-----5-----7-----5----3-----5----7----------3----5----|

e|-------------------------------|
B|-------------------------------|
G|--------5----------------------|
D|---7----5-8x--3----5------7----|
A|---7-8x-3-----3-8x-5-8x---7----|
D|---7----------3----5------7----|



bridge (played at the same time)

part 1

 guitar 1
e|-------------------------------------------------------------------------|
B|---------------------------------------10--10-8--------------------------|
G|----7b9------7b9-9-9----------------------------9-7h8p7-5-7b9------------|
D|-------------------------------------------------------------------------|
A|-------------------------------------------------------------------------|
D|-------------------------------------------------------------------------|

guitar 2 
e|-------------------------------------------------------------------------|
B|-------------------------------------------------------------------------|
G|-------------------------------------------------------------------------|
D|----7-7-7---7-7-7----3-3-3--2-2-2--7-7-7---------------------------------|
A|----7-7-7---7-7-7----3-3-3--2-2-2--7-7-7---------------------------------|
D|----7-7-7---7-7-7----3-3-3--2-2-2--7-7-7---------------------------------|


part 2

guitar 1
e|------------------------------------------------------10-----------------|
B|---------------------------------------------------10--------------------|
G|----7b9------7b9-9-9-------------------8h9p8h9p8h9-----------------------|
D|-------------------------------------------------------------------------|
A|-------------------------------------------------------------------------|
D|-------------------------------------------------------------------------|

guitar 2 
e|-------------------------------------------------------------------------|
B|-------------------------------------------------------------------------|
G|-------------------------------------------------------------------------|
D|----7-7-7---7-7-7----3-3-3--2-2-2--7-7-7---------------------------------|
A|----7-7-7---7-7-7----3-3-3--2-2-2--7-7-7---------------------------------|
D|----7-7-7---7-7-7----3-3-3--2-2-2--7-7-7---------------------------------|





3rd chorus

e|-------------------------------------------------------------------|
B|-------------------------------------------------------------------|
G|---------------------------------------------------5---------------|
D|-7-----5----3-----5-----7-----5----3-----5----7----5-8x--3----5----|
A|-7-12x-5-4x-3-12x-5-4x--7-12x-5-4x-3-12x-5-4x-7-8x-3-----3-8x-5-8x-|
D|-7-----5----3-----5-----7-----5----3-----5----7----------3----5----|

e|---------------------------------------|
B|---------------------------------------|
G|--------5--------------------------7b9-|
D|---7----5-8x--3-3---5-5---5-7--7--7----|
A|---7-8x-3-----3-3---5-5---5-7--7--7----|
D|---7----------3-3---5-5---5-7--7--7----|
 
the last 7b9 is played by guitar 2 but it seemed pointless to write more just for one note.


| /  slide up
| \  slide down
| h  hammer-on
| p  pull-off
| ~  vibrato
| +  harmonic
| x  Mute note
| b  bend to note indicated
===============================================================================





Comments


Popular The Cab tabs & chords
Can You Keep A Secret? Chords
Ill Run Chords
La La 1 Chords
Living Louder Chords
You've Got The Nerve Chords
Zzzzz Tabs
One Of Those Night Ukulele
Take My Hand Ukulele
Vegas Skies Ukulele
Zzzzz Ukulele


Song lyrics



↑ Back to top | Tablatures and chords are parodies/interpretations of the original songs. You may use it for private study, scholarship, research or language learning purposes only
© 2014 AZChords.com Contact us | Privacy policy | DMCA | Add/correct tabs | Request tabs | Top 50 tabs