>
 >
One Of Those Nights

One Of Those Nights Guitar Tabs

The Cab - One Of Those Nights chords, tabs, tablatures, lyrics

Guitar lessons | Add/correct | Request | Top 50 tabs Artists:  A B C D E F G H I J K L M N O P Q R S T U V W X Y Z 0-9

One Of Those Nights Guitar Tabs – The Cab

CD, Sheet music, Poster

Do you like One Of Those Nights? Share with your friends now
ChordsTabsUkulele
Guitar 1 & Guitar 2 - Crop Db (DbAbDbGbBbeb)
Guitar 3- Standard (EADGBe), acoustic

Verse 1

Guitar 1 x2
eb|-----------------------|-----------------------|
Bb|-----------------------|-----------------------|
Gb|-----------------------|-----------------------|
Db|77~7-------------------|-----------------------|
Ab|77~7-------------------|-----------------------|
Db|77~7-------------------|-----------------------|
(continued)
eb|-----------------------|--------------------xxx|
Bb|-----------------------|--------------------xxx|
Gb|-----------------------|--------------------xxx|
Db|77~7-------------------|--------------------xxx|
Ab|77~7-------------------|--------------------xxx|
Db|77~7-------------------|--------------------xxx|
(continued)
eb|-----------------------|-----------------------|
Bb|-----------------------|-----------------------|
Gb|-----------------------|-----------------------|
Db|73~3-------------------|32~2-------------------|
Ab|73~3-------------------|32~2-------------------|
Db|73~3-------------------|32~2-------------------|
(continued)
eb|-----------------------|-----------------------|
Bb|-----------------------|-----------------------|
Gb|-----------------------|-----------------------|
Db|77~7-------------------|-----------------------|
Ab|77~7-------------------|-----------------------|
Db|77~7-------------------|-----------------------|
(continued)
eb|-----------------------|-----------------------|
Bb|-----------------------|-----------------------|
Gb|-----------------------|-----------------------|
Db|77~7-------------------|-----------------------|
Ab|77~7-------------------|-----------------------|
Db|77~7-------------------|-----------------------|

Guitar 2
eb|8  7 8  7 8  7/8 8 8 8 |
Bb|10 8 10 8 10 8/10101010|
Gb|-----------------------|
Db|-----------------------|x11
Ab|-----------------------|
Db|-----------------------|
(continued)
eb|8  7 8  7 8 -----------|
Bb|10 8 10 8 10-----------|
Gb|-----------------------|
Db|------------pickslide–-|
Ab|-----------------------|
Db|-----------------------|

Pre-Chorus

Guitars 1 & 2
eb|--------------------------------|--------------------------------|
Bb|--------------------------------|--------------------------------|
Gb|--------------------------------|--------------------------------|
Db|33333333333333335555555555555555|77777777777777770000000000000000|
Ab|33333333333333335555555555555555|77777777777777770000000000000000|
Db|33333333333333335555555555555555|77777777777777770000000000000000|
(continued)
eb|--------------------------------|--------------------------------|
Bb|--------------------------------|--------------------------------|
Gb|--------------------------------|--------------------------------|
Db|33333333333333335555555555555555|22222222222222222222222222222222|
Ab|33333333333333335555555555555555|22222222222222222222222222222222|
Db|33333333333333335555555555555555|22222222222222222222222222222222|

Chorus

Guitars 1 & 2
eb|------------------------------|-------------------------------|
Bb|------------------------------|-------------------------------|
Gb|–---14xx12xx14–----14xx12xx14-|--–-14xx12xx14-----------------|
Db|7-7- xxx xxx x-3-3- xxx xxx x-|0-0- xxx xxx x-3333333399996666|
Ab|7-7-12xx10xx12-3-3-12xx10xx12-|0-0-12xx10xx12-3333333399996666|
Db|7-7------------3-3------------|0-0------------3333333399996666|
(continued)
eb|------------------------------|-------------------------------|
Bb|------------------------------|-------------------------------|
Gb|–---14xx12xx14–----14xx12xx14-|--–-14xx12xx14-----------------|
Db|7-7- xxx xxx x-3-3- xxx xxx x-|0-0- xxx xxx x-3333333333333333|
Ab|7-7-12xx10xx12-3-3-12xx10xx12-|0-0-12xx10xx12-3333333333333333|
Db|7-7------------3-3------------|0-0------------3333333333333333|

Bridge

Guitar 1
eb|----------------|------7~7~—–-xxx|
Bb|----------------|--------9~—–-xxx|
Gb|----------------|--------7~—–-xxx|
Db|7~--------------|\-------9~—–-xxx|
Ab|7~--------------|\-------7~-–-xxx|
Db|7~--------------|\------------xxx|

Guitar 2
eb|----------------|-------------xxx|
Bb|----------------|-------------xxx|
Gb|----------------|-------------xxx|
Db|7~--------------|\------------xxx|
Ab|7~--------------|\------------xxx|
Db|7~--------------|\------------xxx|

Verse 2

Guitar 1
eb|-----------------------|-----------------------|
Bb|-----------------------|-----------------------|
Gb|-----------------------|-----------------------|
Db|77~7-------------------|-----------------------|
Ab|77~7-------------------|-----------------------|
Db|77~7-------------------|-----------------------|
(continued)
eb|-----------------------|--------------------xxx|
Bb|-----------------------|--------------------xxx|
Gb|-----------------------|--------------------xxx|
Db|77~7-------------------|--------------------xxx|
Ab|77~7-------------------|--------------------xxx|
Db|77~7-------------------|--------------------xxx|
(continued)
eb|-----------------------|-----------------------|
Bb|-----------------------|-----------------------|
Gb|-----------------------|-----------------------|
Db|73~3-------------------|32~2-------------------|
Ab|73~3-------------------|32~2-------------------|
Db|73~3-------------------|32~2-------------------|
(continued)
eb|-----------------------|-----------------------|
Bb|-----------------------|-----------------------|
Gb|-----------------------|-----------------------|
Db|77~7-------------------|-----------------------|
Ab|77~7-------------------|-----------------------|
Db|77~7-------------------|-----------------------|

Guitar 2
eb|8  7 8  7 8  7/8 8 8 8 |
Bb|10 8 10 8 10 8/10101010|
Gb|-----------------------|
Db|-----------------------|x7
Ab|-----------------------|
Db|-----------------------|
(continued)
eb|8  7 8  7 8 8 8 8 8 8 8 8 |
Bb|10 8 10 8 1010101010101010|
Gb|--------------------------|
Db|---------------------–----|
Ab|--------------------------|
Db|--------------------------|

Pre-Chorus

Guitars 1 & 2
eb|--------------------------------|--------------------------------|
Bb|--------------------------------|--------------------------------|
Gb|--------------------------------|--------------------------------|
Db|33333333333333335555555555555555|77777777777777770000000000000000|
Ab|33333333333333335555555555555555|77777777777777770000000000000000|
Db|33333333333333335555555555555555|77777777777777770000000000000000|
(continued)
eb|--------------------------------|--------------------------------|
Bb|--------------------------------|--------------------------------|
Gb|--------------------------------|--------------------------------|
Db|33333333333333335555555555555555|22222222222222222222222222222222|
Ab|33333333333333335555555555555555|22222222222222222222222222222222|
Db|33333333333333335555555555555555|22222222222222222222222222222222|

Chorus

Guitar 1 x2
eb|------------------------------|-------------------------------|
Bb|------------------------------|-------------------------------|
Gb|–---14xx12xx14–----14xx12xx14-|--–-14xx12xx14-----------------|
Db|7-7- xxx xxx x-3-3- xxx xxx x-|0-0- xxx xxx x-3333333399996666|
Ab|7-7-12xx10xx12-3-3-12xx10xx12-|0-0-12xx10xx12-3333333399996666|
Db|7-7------------3-3------------|0-0------------3333333399996666|
(continued)
eb|------------------------------|-------------------------------|
Bb|------------------------------|-------------------------------|
Gb|–---14xx12xx14–----14xx12xx14-|--–-14xx12xx14-----------------|
Db|7-7- xxx xxx x-3-3- xxx xxx x-|0-0- xxx xxx x-3333333333333333|
Ab|7-7-12xx10xx12-3-3-12xx10xx12-|0-0-12xx10xx12-3333333333333333|
Db|7-7------------3-3------------|0-0------------3333333333333333|

Guitar 2
eb|------------------------------|-------------------------------|
Bb|------------------------------|-------------------------------|
Gb|–---14xx12xx14–----14xx12xx14-|--–-14xx12xx14-----------------|
Db|7-7- xxx xxx x-3-3- xxx xxx x-|0-0- xxx xxx x-3333333399996666|
Ab|7-7-12xx10xx12-3-3-12xx10xx12-|0-0-12xx10xx12-3333333399996666|
Db|7-7------------3-3------------|0-0------------3333333399996666|
(continued)
eb|------------------------------|-------------------------------|
Bb|------------------------------|-------------------------------|
Gb|–---14xx12xx14–----14xx12xx14-|--–-14xx12xx14-----------------|
Db|7-7- xxx xxx x-3-3- xxx xxx x-|0-0- xxx xxx x-3333333333333333|
Ab|7-7-12xx10xx12-3-3-12xx10xx12-|0-0-12xx10xx12-3333333333333333|
Db|7-7------------3-3------------|0-0------------3333333333333333|
(continued)
eb|------------------------------|----------------------------------|
Bb|------------------------------|----------------------------------|
Gb|------------------------------|----12-15b17~r15-15-15b17-15b17-13|
Db|----14b16r14-12~14-14b16r14-12|14~-------------------------------|
Ab|------------------------------|----------------------------------|
Db|------------------------------|----------------------------------|
(continued)
eb|15b17~-1517b19~-12-19b22~-|
Bb|--------------------------|
Gb|--------------------------|
Db|--------------------------|
Ab|--------------------------|
Db|--------------------------|
(continued)
eb|----------------12h13h15p13p12--------|
Bb|--------12h13h15--------------15p13p12|
Gb|12h13h14------------------------------|
Db|--------------------------------------|
Ab|--------------------------------------|
Db|--------------------------------------|
(continued)
eb|----------------12h13h15p13p12--------|
Bb|--------12h13h15--------------15p13p12|
Gb|12h13h14------------------------------|
Db|--------------------------------------|
Ab|--------------------------------------|
Db|--------------------------------------|

Bridge

Guitar 1
eb|12~-------------|\---------—–----|
Bb|----------------|----------—–----|
Gb|----------------|----------—–----|
Db|----------------|----------—–----|
Ab|----------------|-----------–----|
Db|----------------|----------------|

Guitar 2
eb|----------------|----------------|----------------|
Bb|----------------|----------------|----------------|
Gb|----------------|----------------|----------------|
Db|7~--------------|----------------|\---------------|
Ab|7~--------------|----------------|\---------------|
Db|7~--------------|----------------|\---------------|

Acoustic Chorus

Guitar 3
e|--44-44-------000-00-|4-44-44-4-44-----|--44-44—–-00-00|–-44-44--444-3~–-|
B|--44-44------0-00-00-|5-55-55-4-44-----|--44-44—–-00-00|–-55-55--444-4~–-|
G|--44-44-----1--11-11-|6-66-66-4-44-----|--44-44—–-11-11|–-66-66--444-3~–-|
D|--44-44-—–-2—–-22-22-|6-66-66-4-44-----|--44-44—–-22-22|–-66-66--444-5~–-|
A|--66-66–--2----22-22-|4-44-44-6-66-----|--66-66—–-22-22|4-44-44–-666-6~–-|
E|4-44-44-0------00-00-|--------4-44-4020|4-44-44-0-00-00|-------4-444-3~–-|

Outro

Guitar 1
eb|------------------------------|-------------------------------|
Bb|------------------------------|-------------------------------|
Gb|–---14xx12xx14–----14xx12xx14-|--–-14xx12xx14-----------------|
Db|7-7- xxx xxx x-3-3- xxx xxx x-|0-0- xxx xxx x-3333333399996666|
Ab|7-7-12xx10xx12-3-3-12xx10xx12-|0-0-12xx10xx12-3333333399996666|
Db|7-7------------3-3------------|0-0------------3333333399996666|
(continued)
eb|------------------------------|-------------------------------|
Bb|------------------------------|-------------------------------|
Gb|–---14xx12xx14–----14xx12xx14-|--–-14xx12xx14-----------------|
Db|7-7- xxx xxx x-3-3- xxx xxx x-|0-0- xxx xxx x-3333333333333333|
Ab|7-7-12xx10xx12-3-3-12xx10xx12-|0-0-12xx10xx12-3333333333333333|
Db|7-7------------3-3------------|0-0------------3333333333333333|
(continued)
eb|----------------|
Bb|----------------|
Gb|----------------|
Db|7~--------------|
Ab|7~--------------|
Db|7~--------------|

Guitar 2
eb|------------------------------|---------------------------16b17~|
Bb|---------------------------12-|15b17~r15-15-15b17-15b17-13------|
Gb|----14~-12~-14~----14~-12~----|---------------------------------|
Db|------------------------------|---------------------------------|
Ab|------------------------------|---------------------------------|
Db|------------------------------|---------------------------------|
(continued)
eb|17b19~-------------------12h13h15-17b19~---------|
Bb|-----------------12h13h15------------------------|
Gb|---------12h13h14------------------------14-12-14|
Db|-------------------------------------------------|
Ab|-------------------------------------------------|
Db|-------------------------------------------------|
(continued)
eb|----------------12h13h15p13p12--------|
Bb|--------12h13h15--------------15p13p12|
Gb|12h13h14------------------------------|
Db|--------------------------------------|
Ab|--------------------------------------|
Db|--------------------------------------|
(continued)
eb|----------------12h13h15p13p12--------|
Bb|--------12h13h15--------------15p13p12|
Gb|12h13h14------------------------------|
Db|--------------------------------------|
Ab|--------------------------------------|
Db|--------------------------------------|
(continued)
eb|17~--------------|
Bb|-----------------|
Gb|-----------------|
Db|-----------------|
Ab|-----------------|
Db|-----------------|





Comments


Popular The Cab tabs & chords
Bad 1 Chords
High Hopes In Velvet Chords
One Of Those Nights Chords
Temporary Bliss Chords
Vegas Skies 1 Chords
Zzzzz Chords
Another Me Tabs
That 70's Song Tabs
Diamonds Are Forever Ukulele
That 70s Song Ukulele


Song lyrics



↑ Back to top | Tablatures and chords are parodies/interpretations of the original songs. You may use it for private study, scholarship, research or language learning purposes only
© 2014 AZChords.com Contact us | Privacy policy | DMCA | Add/correct tabs | Request tabs | Top 50 tabs