» » »

The Cab, Living Louder Tabs (ver.1)

Artists:  A B C D E F G H I J K L M N O P Q R S T U V W X Y Z # 

Living Louder Tabs (ver.1)

The Cab Tabs
 Rating:
4.2/5 (5 votes)
Living Louder lessons Tabs too difficult? Try these video lessons and learn fast
1
                -------------------------------------------------------------------------------
-------------------------------------------------------------------------------


Tuning: Standard
I didn't put the exact strum patterns, you can figure that out.  These are just the 
chord changes at the appropriate times.

Intro and Verse

e|---------------------------------------------------------------------------|
B|---------------------------------------------------------------------------|
G|----6----------------------------------------------------------------------|
D|----6-----6-----4----------------------------------------------------------|
A|----4-----6-----4----------------------------------------------------------|
E|----------4-----2----------------------------------------------------------|

No one, no one lives forever, but we will be remembered...
e|---------------------------------------------------------------------------|
B|---------------------------------------------------------------------------|
G|----8-----6----------------------------------------------------------------|
D|----8-----6-----4-----6----------------------------------------------------|
A|----6-----4-----4-----6----------------------------------------------------|
E|----------------2-----4----------------------------------------------------|

Chorus:  Baby, I'm living louder....

e|---------------------------------------------------------------------------|
B|---------------------------------------------------------------------------|
G|----6----------------------------------------------------------------------|
D|----6-----6-----4----------------------------------------------------------|
A|----4-----6-----4----------------------------------------------------------|
E|----------4-----2----------------------------------------------------------|

Cuz we're all just kids...           we're growing older...
e|---------------------------------------------------------------------------|
B|---------------------------------------------------------------------------|
G|------------------------------------8--------------------------------------|
D|----8-----4-----8-----6-------------8-----4-----6--------------------------|
A|----8-----4-----8-----6-------------6-----4-----6--------------------------|
E|----6-----2-----6-----4-------------------2-----4--------------------------|

Bridge
                        When you got your breath...
                        If I wake up with a beating...
e|---------------------------------------------------------------------------|
B|---------------------------------------------------------------------------|
G|----------5-----6----------------------------------------------------------|
D|----8-----5-----6-----4-----6----------------------------------------------|
A|----8-----3-----4-----4-----6----------------------------------------------|
E|----6-----------------2-----4----------------------------------------------|


Song finishes up with chorus and post-chorus progressions.]
            
Submit corrections

comments powered by Disqus
↑ Back to top | The Cab Tabs for Living Louder. Lyrics for acoustic guitar and electric guitar. 1 Tablatures and chords are parodies/interpretations of the original songs. You may use it for private study, scholarship, research or language learning purposes only