» » »

I Want To Break Free Tabs (ver.1)

Artists:  A B C D E F G H I J K L M N O P Q R S T U V W X Y Z # 

I Want To Break Free Tabs (ver.1)

The Cab
Rating:
5/5 (1 vote)

Hard to play? Try these video lessons and learn fast.
                The Cab

Its not too hard. Good luck!

Opening Solo (:27-:38)
|-----------------------------------|
|-----------------------------------|
|-13~-12~-8s10-8--------------------|
|---------------10-8~-----------/8~-|
|---------------------10h11p10~-/8~-|
|-------------------------------/6~-|

Verse (:44-1:39)
|-----------------------------------------------------------------------|
|-----------------------------------------------------------------------|
|-2---2---2-2---2---2-2---2---2-2---2---2-0---0---0-0---0---0-2---2---2-|
|-000000000-000000000-000000000-000000000-000000000-000000000-000000000-|
|-----------------------------------------------------------------------|
|-----------------------------------------------------------------------|
   ... ...   ... ...   ... ...   ... ...   ... ...   ... ...   ... ...
Verse (Cont.)
|-----------|
|-----------|
|-2---2---2-|      Continue this throughout the verse
|-000000000-|
|-----------|        
|-----------|
   ... ...


Chorus(1:39-2:07)
Guitar 1
|--------------------------|
|--------------------------|
|-13-12-13-13b15r13-12-10~-|
|-13-12-13-13b15r13-12-10~-|
|--------------------------|
|--------------------------|

Guitar 2
|----------------------------------------|
|----------------------------------------|
|----------------------------------------|
|-8~-6~-8~-6~-8~-10-6~8~10-6~8~10-6~8~10-|
|-8~-6~-8~-6~-8~-10-6~8~10-6~8~10-6~8~10-|
|-6~-4~-6~-4~-6~-8~-4~6~8~-4~6~8~-4~6~8~-|

Solo (2:07-2:43)
Guitar 1
|---------------------------------------------------------------|
|---------------------------------------------------------------|
|--8-10-12-12b13r12~--8-10-12-12b13r12------12b13r12------------|
|-8------------------8-----------------15p13--------15p13-------|
|--------------------------------------------------------15p13~-|
|---------------------------------------------------------------|
  .. .               .. .

|-------------------------------------------------------------------|
|---------------11~-11s13-8h11p8-6h9p6-4h6p4~-11~-9~-8h9p8----------|
|-----8~8~-10s12------------------------------------------8~8s12-8~-|
|-8s10--------------------------------------------------------------|
|-------------------------------------------------------------------|
|-------------------------------------------------------------------|

|---------------|
|-11~-9~-14b16~-|
|---------------|
|---------------|
|---------------|
|---------------|

Guitar 2 - same as verse


Play verse for the rest of the song
            
Hard to play? Try these video lessons and learn fast. | Correct




comments powered by Disqus
↑ Back to top | Tablatures and chords are parodies/interpretations of the original songs. You may use it for private study, scholarship, research or language learning purposes only