» » »

The Cab, I'll Run Tabs (ver.1)

Artists:  A B C D E F G H I J K L M N O P Q R S T U V W X Y Z # 

I'll Run Tabs (ver.1)

The Cab Tabs
 Rating:
4/5 (4 votes)
I'll Run lessons Tabs too difficult? Try these video lessons and learn fast
1
                -------------------------------------------------------------------------------
-------------------------------------------------------------------------------

Tuning: Drop D

Intro (w/delay)
e|--------------------------------------------|
B|--10-9-10---10-9-10---10-9-10-12-10-9---9---|
G|----------9---------9-----------------9-----|
D|--------------------------------------------|
A|--------------------------------------------|
E|--------------------------------------------| x2

Verse Gtr. 1
e|------------------|
B|------------------|
G|------------------|
D|--0-----4--2~-----|
A|--0-----4--2~-----|
E|--0-----4--2~-----|

Verse Gtr. 2 (enters after "we can chase away these fears") w/delay
e|--------------------------------------------|
B|---10-9-10---10-9-10---10-9-10-12-10-9------|
G|-9---------9---------9-----------------9----|
D|--------------------------------------------|
A|--------------------------------------------|
E|--------------------------------------------|
[timing is different from intro]

Chorus
e|-----------------------------------------------------------------------|
B|-----------------------------------------------------------------------|
G|-----------------------------------------------------------------------|
D|--7777777777777777000000000000000044444444444444442222222222222222-----|
A|--7777777777777777000000000000000044444444444444442222222222222222-----|
E|--7777777777777777000000000000000044444444444444442222222222222222-----|

Bridge
e|---------------------------------------------------------------------------|
B|---------------------------------------------------------------------------|
G|---------------------------------------------------------------------------|
D|-0-0-0-0-0-0-0-0-2-2-2-2-2-2-2-2-4-4-4-4-4-4-4-4-7-7-6-6-4-4-2-2-----------|
A|-0-0-0-0-0-0-0-0-2-2-2-2-2-2-2-2-4-4-4-4-4-4-4-4-7-7-7-7-4-4-2-2-----------|
E|-0-0-0-0-0-0-0-0-2-2-2-2-2-2-2-2-4-4-4-4-4-4-4-4-7-7-6-6-4-4-2-2-----------|

Bridge ct.
e|------------------------------------------|
B|------------------------------------------|
G|------------------------------------------|
D|-0-0-0-0-0-0-0-0-2-2-2-2-22222222-7~------|
A|-0-0-0-0-0-0-0-0-2-2-2-2-22222222-7~------|
E|-0-0-0-0-0-0-0-0-2-2-2-2-22222222-7~------|

Pre- Final Chorus               PMPMPMPMPMPMP
e|----0~-----------------------------------------|
B|--------------3~---------0~--------------------|
G|--2---------2----------2-----------------------|
D|------------------------------2222222222222----|
A|------------------------------2222222222222----|
E|------------------------------2222222222222----|

End Final Chorus on:
e|--------|
B|--------|
G|--------|
D|-7~-----|
A|-7~-----|
E|-7~-----|

Outro w/delay
e|--------------------------------------------|
B|---10-9-10---10-9-10---10-9-10-12-10-9------|
G|-9---------9---------9-----------------9----|
D|--------------------------------------------|
A|--------------------------------------------|
E|--------------------------------------------|

End Song On:
e|-------|
B|-------|
G|-------|
D|-0~----|
A|-0~----|
E|-0~----|

| PM palm mute
| /  slide up
| \  slide down
| h  hammer-on
| p  pull-off
| ~  vibrato
| +  harmonic
| x  Mute note
===============================================================================
            
Submit corrections

comments powered by Disqus
↑ Back to top | The Cab Tabs for I'll Run. Lyrics for acoustic guitar and electric guitar. 1 Tablatures and chords are parodies/interpretations of the original songs. You may use it for private study, scholarship, research or language learning purposes only