» » »

The Cab, I'll Run Bass tabs (ver.1)

Artists:  A B C D E F G H I J K L M N O P Q R S T U V W X Y Z # 

I'll Run Bass tabs (ver.1)

The Cab Tabs
 Rating:
4/5 (4 votes)
I'll Run lessons Tabs too difficult? Try these video lessons and learn fast
1
                -------------------------------------------------------------------------------
-------------------------------------------------------------------------------


Okay, So I've updated this tab. When I first tabbed this song, it was in
the wrong tuning and I didn't tab out the bridge, well I fixed the tuning
and tabbed out the bridge, and I'm sure this is 100% right. The only
thing is, there might be a few fills in the chorus, but I'm not sure if
its piano or bass, not a big deal.


Tuning: Drop D  (DADG)


Intro x1  0:06

G|----|
D|----|
A|----|
D|0---|


Verse x1

G|----------------------------------------|
D|----------------------------------------|
A|----------------------------------------|
D|12\---0---4--2~---0---4--2~---0---4--2~-|

G|-------------------------------------------------------------|
D|-------------------------------------------------------------|
A|-------------------------------------------------------------|
D|12~-\--0---4--2~---0---4--2~---0---4--2~---0---4--2-22222222-|


Chorus x1

G|-----------------------------------------------------------------|
D|-----------------------------------------------------------------|
A|-----------------------------------------------------------------|
D|7777777777777777-0000000000000000-4444444444444444-2222222222222-|

G|-------------------------------------------------------------------|
D|-------------------------------------------------------------------|
A|-------------------------------------------------------------------|
D|7777777777777777-0000000000000000-4444444444444444-222222222222222-|


Verse x1

G|-----------------------------------------------------|
D|-----------------------------------------------------|
A|-----------------------------------------------------|
D|0---4--2~---0---4--2~---0---4--2~---0---4--2~--12~-\-|

G|------------------------------------------------------|
D|------------------------------------------------------|
A|------------------------------------------------------|
D|0---4--2~---0---4--2~---0---4--2~---0---4--2-22222222-|


Chorus x2

G|--------------------------------------------------------------------|
D|--------------------------------------------------------------------|
A|--------------------------------------------------------------------|
D|7777777777777777-0000000000000000-4444444444444444-2222222222222222-|


Bridge x1

G|----------------------------------------------------------------|
D|----------------------------------------------------------------|
A|----------------------------------------------------------------|
D|0-0-0-0-0-0-0-0-2-2-2-2-2-2-2-2-4-4-4-4-4-4-4-4-7-7-6-6-4-4-2-2-|

G|------------------------------------|
D|------------------------------------|
A|------------------------------------|
D|0-0-0-0-0-0-0-0-2-2-2-2-22222222-7~-|


Pre-Chorus  2:50

G|--------------|
D|--------------|
A|--------------|
D|2222222222222-|


Outro Chorus x1

G|--------------------------------------------------------------------|
D|--------------------------------------------------------------------|
A|--------------------------------------------------------------------|
D|7777777777777777-0000000000000000-4444444444444444-2222222222222222-|

G|-----------------------------------------------------------------------|
D|-----------------------------------------------------------------------|
A|-----------------------------------------------------------------------|
D|7777777777777777-0000000000000000-4444444444444444-2222222222222222-7~-|

G|--------|
D|--------|
A|--------|
D|0~~~~~~-|


PEACE


| /  slide up
| \  slide down
| h  hammer-on
| p  pull-off
| ~  vibrato
| +  harmonic
| x  Mute note
===============================================================================
            
Submit corrections

comments powered by Disqus
↑ Back to top | The Cab Bass for I'll Run. Lyrics for acoustic guitar and electric guitar. 1 Tablatures and chords are parodies/interpretations of the original songs. You may use it for private study, scholarship, research or language learning purposes only