» » »

The Cab, Endlessly Bass tabs (ver.1)

Artists:  A B C D E F G H I J K L M N O P Q R S T U V W X Y Z # 

Endlessly Bass tabs (ver.1)

The Cab Tabs
 Rating:
4.3/5 (6 votes)
Endlessly lessons Tabs too difficult? Try these video lessons and learn fast
1
                -----------------------------------------------------------------------------
-----------------------------------------------------------------------------


Tunning: Standard

-----------------------------------------------------------------------------

Bass Intro: 0:07

Intro

G|-------------------------------------------|
D|-------------------------------------------|  
A|----2-22-2--2------------------------------|
E|0h2-----------2-22-2--2-4-44-4--4-0-00-0--0|

Verse 1

G|----------------------------|
D|----------------------------| x2
A|2---------------------------|
E|---------2--------4--------0|

G|---------------------------------------|
D|---------------------------------------|  
A|--------------------2-22-2--2----------|
E|4-44-4--4-2-22-2--2-----------0-00-0--0|

G|--------------------------------|
D|--------------------------------|  
A|--------------------------------|
E|4-44-4--4-2-22-2--2-0-00-0--0-2~|

Chorus

G|---------------------------------------|
D|---------------------------------------| x4  
A|----------2-22-2--2--------------------|
E|0-00-0--0-----------2-22-2--2-4-44-4--4|

Verse 2

G|----------------------------------------|
D|----------------------------------------| x2
A|2-22-2--2-------------------------------|
E|-----------2-22-2--2-4-44-4--4-0-00-0--0|

G|---------------------------------------|
D|---------------------------------------|  
A|--------------------2-22-2--2----------|
E|4-44-4--4-2-22-2--2-----------0-00-0--0|

G|--------------------------------|
D|--------------------------------|  
A|--------------------------------|
E|4-44-4--4-2-22-2--2-0-00-0--0-2~|

Chorus

G|---------------------------------------|
D|---------------------------------------| x4  
A|----------2-22-2--2--------------------|
E|0-00-0--0-----------2-22-2--2-4-44-4--4|

Bridge

G|---------------------------------------|
D|---------------------------------------| x2  
A|------------------------------2-22-2--2|
E|0-00-0--0-2-22-2--2-4-44-4--4----------|

Pre-Chorus

G|------------------4---------|
D|6--------4-----------------2|
A|----------------------------|
E|----------------------------|

G|----------------------------||--------------|
D|6--------4--------2~--------||--------------|
A|----------------------------||--------------|
E|----------------------------||12/0-12/0-12/0|

Chorus

G|---------------------------------------|
D|---------------------------------------| x4  
A|----------2-22-2--2--------------------|
E|0-00-0--0-----------2-22-2--2-4-44-4--4|

Post-Chorus

G|---------------------------------------|
D|---------------------------------------| x2  
A|----------2-22-2--2--------------------|
E|0-00-0--0-----------2-22-2--2-4-44-4--4|

G|----------------------------|
D|----------------------------|
A|2---------------------------|
E|---------2--------4--------0|

G|-----------------------------|
D|-----------------------------|
A|2----------------------------|
E|---------2--------4--------0~|

=============================================================================
| /  slide up
| \  slide down
| h  hammer-on
| p  pull-off
| ~  vibrato
| +  harmonic
| x  Mute note
=============================================================================
            
Submit corrections

comments powered by Disqus
↑ Back to top | The Cab Bass for Endlessly. Lyrics for acoustic guitar and electric guitar. 1 Tablatures and chords are parodies/interpretations of the original songs. You may use it for private study, scholarship, research or language learning purposes only