» » »

The Bridgeheads, Things Tabs (ver.1)

Artists:  A B C D E F G H I J K L M N O P Q R S T U V W X Y Z # 

Things Tabs (ver.1)

The Bridgeheads Tabs
Rating:
5/5 (1 vote)
Hard to play? Try these video lessons and learn fast.
                




Main riff

e|------------------------------------------------|
B|------------------------------------------------|
G|------------------------------------------------|
D|------------------------------------------------|
A|------10----------10-----------9-----------9----|
E|-12-12--12---12-12--12---12-12--12---12-12--12--|

e|------------------------------------------------|
B|------------------------------------------------|
G|------------------------------------------------|
D|------------------------------------------------|
A|------12----------12-----------9-10-12-10-9-----|
E|-10-10--10---10-10—-10---10-10-------------10---|


Chorus riff

   G                              A
e|--------------------------------------------------------------|
B|---------15-15--15-15--15-15------------17-17--17-17--17-17---|
G|-12-12-12-----12-----12-----12--14-14-14-----14-----14-----14-|
D|--------------------------------------------------------------|
A|--------------------------------------------------------------|
E|--------------------------------------------------------------|

   E
e|---------22-21-17-19--------|
B|-17-17-17-----------17--17--|
G|----------------------------|
D|----------------------------|
A|----------------------------|
E|----------------------------|


After first chorus

e|------------------------------------------------|
B|------------------------------------------------|
G|-12~--11~---------------------------------------|
D|----------------------14---------14-------------|
A|------------------------------------------------|
E|--------------------12--12--12-12---------------|

After second chorus

e|--------------------|
B|--------------------|
G|-12~--11~--11~--9~--| x2
D|--------------------|
A|--------------------|
E|--------------------|

e|-----------------------------------|
B|-----------------------------------|
G|-12--12--12-12--11--11--11--11-11--|
D|-14--14--14-14--14--14--14--14-14--|
A|-----------------------------------|
E|-----------------------------------|

e|-----------------------------------|
B|-----------------------------------|
G|-11--11--11-11--14--14--14--14-14--|
D|-12--12--12-12--12--12--12--12-12--|
A|-----------------------------------|
E|-----------------------------------|

Final chorus
-play same as first but in the end play

e|--------------------------------------------------------------|
B|---------15-15--15-15--15-15------------17-17--17-17--17-17---|
G|-12-12-12-----12-----12-----12--14-14-14-----14-----14-----14-| x2
D|--------------------------------------------------------------|
A|--------------------------------------------------------------|
E|--------------------------------------------------------------|

Song ends on E
            

comments powered by Disqus
↑ Back to top | The Bridgeheads Tabs for Things. Lyrics for acoustic guitar and electric guitar. Tablatures and chords are parodies/interpretations of the original songs. You may use it for private study, scholarship, research or language learning purposes only