>
 >
Things

Things Guitar Tabs

The Bridgeheads - Things chords, tabs, tablatures, lyrics

Guitar lessons | Add/correct | Request | Top 50 tabs Artists:  A B C D E F G H I J K L M N O P Q R S T U V W X Y Z 0-9

Things Guitar Tabs – The Bridgeheads

CD, Sheet music, Poster

Do you like Things? Share with your friends now
ChordsTabsUkulele





Main riff

e|------------------------------------------------|
B|------------------------------------------------|
G|------------------------------------------------|
D|------------------------------------------------|
A|------10----------10-----------9-----------9----|
E|-12-12--12---12-12--12---12-12--12---12-12--12--|

e|------------------------------------------------|
B|------------------------------------------------|
G|------------------------------------------------|
D|------------------------------------------------|
A|------12----------12-----------9-10-12-10-9-----|
E|-10-10--10---10-10-10---10-10-------------10---|


Chorus riff

   G                              A
e|--------------------------------------------------------------|
B|---------15-15--15-15--15-15------------17-17--17-17--17-17---|
G|-12-12-12-----12-----12-----12--14-14-14-----14-----14-----14-|
D|--------------------------------------------------------------|
A|--------------------------------------------------------------|
E|--------------------------------------------------------------|

   E
e|---------22-21-17-19--------|
B|-17-17-17-----------17--17--|
G|----------------------------|
D|----------------------------|
A|----------------------------|
E|----------------------------|


After first chorus

e|------------------------------------------------|
B|------------------------------------------------|
G|-12~--11~---------------------------------------|
D|----------------------14---------14-------------|
A|------------------------------------------------|
E|--------------------12--12--12-12---------------|

After second chorus

e|--------------------|
B|--------------------|
G|-12~--11~--11~--9~--| x2
D|--------------------|
A|--------------------|
E|--------------------|

e|-----------------------------------|
B|-----------------------------------|
G|-12--12--12-12--11--11--11--11-11--|
D|-14--14--14-14--14--14--14--14-14--|
A|-----------------------------------|
E|-----------------------------------|

e|-----------------------------------|
B|-----------------------------------|
G|-11--11--11-11--14--14--14--14-14--|
D|-12--12--12-12--12--12--12--12-12--|
A|-----------------------------------|
E|-----------------------------------|

Final chorus
-play same as first but in the end play

e|--------------------------------------------------------------|
B|---------15-15--15-15--15-15------------17-17--17-17--17-17---|
G|-12-12-12-----12-----12-----12--14-14-14-----14-----14-----14-| x2
D|--------------------------------------------------------------|
A|--------------------------------------------------------------|
E|--------------------------------------------------------------|

Song ends on E





Comments


Popular The Bridgeheads tabs & chords
Best Ones Chords
Expression Chords
Gold Rush Chords
Secret Ink Chords
Tinnitus Chords
Best Ones Ukulele
Expression Ukulele
Fire Ukulele
Friendship Ukulele
Gold Rush Ukulele


Song lyrics



↑ Back to top | Tablatures and chords are parodies/interpretations of the original songs. You may use it for private study, scholarship, research or language learning purposes only
© 2014 AZChords.com Contact us | Privacy policy | DMCA | Add/correct tabs | Request tabs | Top 50 tabs