» » »

The Blue Hearts, Train-train Bass tabs (ver.1)

Artists:  A B C D E F G H I J K L M N O P Q R S T U V W X Y Z # 

Train-train Bass tabs (ver.1)

The Blue Hearts Tabs
 Rating:
4/5 (4 votes)
Train-train lessons Tabs too difficult? Try these video lessons and learn fast
                Title : Train Train
Album : Train Train

bass tab by Sanchir Enkhmend


starts 00:32
G:--------------------------------------------------------------|
D:--------------------------------------------------------------|
A:---------------7--7-7--7-7-7--5--5-5--5-5-5-------------------|
E:-5--5-5--5-5-5------------------------------5--5-5--5-5-5-----| x2


VERSE:
G:--------------------------------------------------------------|
D:--------------------------------------------------------------|
A:-----------------7--7-7--7-7-7----------------5-5-5-----------|
E:-3/5--5-5--5-5-5----------------7--7-7--7-7-7-------5--5-5----| x4


BRIDGE:
G:--------------------------------------------------------------|
D:--------------------------------------------------------------|
A:-5--5-5--5-5-5--7-5-4----4--4-4--4-4-4--9-7-5-4---------------|
E:----------------------7---------------------------------------|

G:--------------------------------------------------------------|
D:--------------------------------------------------------------|
A:-5--5-5--5-5-5--7--7-7--7-7-7--5-4----------------------------|
E:-----------------------------------7-5~-----------------------| 


CHORUS:
G:--------------------------------------------------------------|
D:--------------------------------------------------------------|
A:-------------7--7--7--7--------------5-4----------------------|
E:-5--5--5--5--------------5--5--5--5------7-5------------------| x2

G:--------------------------------------------------------------|
D:--------------------------------------------------------------|
A:---------------7--7-7--7-7-7--5--5-5--5-5-5-------------------|
E:-5--5-5--5-5-5------------------------------5--5-5--5-5-5-----| x2


VERSE:
G:--------------------------------------------------------------|
D:--------------------------------------------------------------|
A:-----------------7--7-7--7-7-7----------------5-5-5---4/7-----|
E:-3/5--5-5--5-5-5----------------7--7-7--7-7-7-------5---------|

G:--------------------------------------------------------------|
D:--------------------------------------------------------------|
A:-----------------7--7-7--7-7-7----------------5-5-5-----------|
E:-3/5--5-5--5-5-5----------------7--7-7--7-7-7-------5--5-5----| x3


BRIDGE:
G:--------------------------------------------------------------|
D:--------------------------------------------------------------|
A:-5--5-5--5-5-5--7-5-4----4--4-4--4-4-4--9-7-5-4---------------|
E:----------------------7---------------------------------------|

G:--------------------------------------------------------------|
D:--------------------------------------------------------------|
A:-5--5-5--5-5-5--7--7-7--7-7-7--5-4----------------------------|
E:-----------------------------------7-5~-----------------------|


CHORUS:
G:--------------------------------------------------------------|
D:--------------------------------------------------------------|
A:-------------7--7--7--7--------------5-4----------------------|
E:-5--5--5--5--------------5--5--5--5------7-5------------------| x2

G:--------------------------------------------------------------|
D:--------------------------------------------------------------|
A:---------------7--7-7--7-7-7--5--5-5--5-5-5-------------------|
E:-5--5-5--5-5-5------------------------------5--5-5--5-5-5-----| x2


STARTS AT 02:54
G:--------------------------------------------------------------|
D:--------------------------------------------------------------|
A:-------9---7--------------------------------------------------|
E:-7~-----------------------------------------------------------|


VERSE:
G:--------------------------------------------------------------|
D:--------------------------------------------------------------|
A:-----------------7--7-7--7-7-7----------------5-5-5---4/7-----|
E:-3/5--5-5--5-5-5----------------7--7-7--7-7-7-------5---------|

G:--------------------------------------------------------------|
D:--------------------------------------------------------------|
A:-----------------7--7-7--7-7-7----------------5-5-5-----------|
E:-3/5--5-5--5-5-5----------------7--7-7--7-7-7-------5--5-5----|


BRIDGE:
G:--------------------------------------------------------------|
D:--------------------------------------------------------------|
A:-5--5-5--5-5-5--7-5-4----4--4-4--4-4-4--9-7-5-4---------------|
E:----------------------7---------------------------------------|

G:--------------------------------------------------------------|
D:--------------------------------------------------------------|
A:-5--4--------7--5--4-----5--4-------5s12s1--------------------|
E:-------7--5-----------7-------7--5----------------------------|


CHORUS:
G:--------------------------------------------------------------|
D:--------------------------------------------------------------|
A:-------------7--7--4-5s7-------------5-4----------------------|
E:-5--5--5--5---------------5--5--5--5------7-5-----------------| x2

G:--------------------------------------------------------------|
D:--------------------------------------------------------------|
A:-------------7--7--7--7--------------5-4----------------------|
E:-5--5--5--5--------------5--5--5--5------7-5------------------|

G:--------------------------------------------------------------|
D:--------------------------------------------------------------|
A:-------------7--7--7--7--------------9--7--5------------------|
E:-5--5--5--5--------------5--5--5--5-----------5---------------|
            
Submit corrections

comments powered by Disqus
↑ Back to top | The Blue Hearts Bass for Train-train. Lyrics for acoustic guitar and electric guitar. Tablatures and chords are parodies/interpretations of the original songs. You may use it for private study, scholarship, research or language learning purposes only