» » »

Wala Nang Iba Tabs (ver.1)

Artists:  A B C D E F G H I J K L M N O P Q R S T U V W X Y Z # 

Wala Nang Iba Tabs (ver.1)

The Bloomfields
Rating:
0/5 (0 votes)

Hard to play? Try these video lessons and learn fast.
                -------------------------------------------------------------------------------
                             SONG NAME - Band Name
-------------------------------------------------------------------------------

Tuning: Standard

   alala mo....        nandon ako..
e|-2-2--3-3-2-2-2-2----2-2--3-3-5-5-5-5-----------|
B|-2-2--3-3-3-3-3-3----2-2--3-3-5-5-5-5-----------|
G|-2-2--4-4-2-2-2-2----2-2--4-4-6-6-6-6-----------|
D|-4-4--3-3-0-0-0-0----4-4--3-3-7-7-5-5-----------|
A|-4-4--5-5------------4-4--5-5-7-7-7-7-----------|
E|-2-2--3-3------------2-2--3-3-5-5-5-5-----------|


   sino bang...    nandito lang..
e|-2-2-3-3---------2-2-3-3------------------------|
B|-3-3-3-3---------3-3-5-5------------------------|
G|-2-2-4-4---------2-2-3-3------------------------|
D|-4-4-3-3---------4-4-5-5------------------------|
A|-2-2-5-5---------2-2-3-3------------------------|
E|-----3-3----------------------------------------|

   mahal kita wala nang iba....
e|-2-2-3-3-5-5---------------------------------------------------------------|
B|-2-2-3-3-5-5---------------------------------------------------------------|
G|-2-2-4-4-6-6---------------------------------------------------------------|
D|-4-4-3-3-7-7---------------------------------------------------------------|
A|-4-4-5-5-7-7---------------------------------------------------------------|
E|-2-2-3-3-5-5---------------------------------------------------------------|

the rest tabs are similar to what i had given just play the song for some help.


please rate
            
Hard to play? Try these video lessons and learn fast. | Correct




comments powered by Disqus
↑ Back to top | Tablatures and chords are parodies/interpretations of the original songs. You may use it for private study, scholarship, research or language learning purposes only