>
 >
The Way I Care

The Way I Care Guitar Tabs

The Bloomfields - The Way I Care chords, tabs, tablatures, lyrics

Guitar lessons | Add/correct | Request | Top 50 tabs Artists:  A B C D E F G H I J K L M N O P Q R S T U V W X Y Z 0-9

The Way I Care Guitar Tabs – The Bloomfields

CD, Sheet music, Poster

Do you like The Way I Care? Share with your friends now
ChordsTabsUkulele
THE WAY I CARE by The Bloomfields

mga ginamit na chords:

 D  - xxx23x / xxx775
 E  - xxx45x
 B  - x24442
 F#7- 242322
 G  - xxx787
 A  - xxx9109


INTRO:

guitar 2:
e|-------------10----10--|
B|-10-10-10-12----12-----|
G|-----------------------|
D|-----------------------|
A|-----------------------|
E|-----------------------|

guitar 1: D-E-(4x)

guitar 2:
e|-------------14-12-------------10----10--|
B|-10-10-10-12-------10-10-10-12----12-----|
G|-----------------------------------------| 4x
D|-----------------------------------------|
A|-----------------------------------------|
E|-----------------------------------------|


VERSE:

guitar 1: D-E

guitar 2:
e|-------------14-12-------------10----10---|
B|-10-10-10-12-------10-10-10-12----12------|
G|------------------------------------------| ..tuloy-tuloy lang..
D|------------------------------------------|
A|------------------------------------------|
E|------------------------------------------|


CHORUS:

guitar 1: B-E-F#7--

guitar 2:

e|-2-2-2-2--x-x-x-x--2-2-2-2-2-2-2-2--|
B|-4-4-4-4--5-5-5-5--2-4-2-4-2-4-2-4--|
G|-4-4-4-4--4-4-4-4--3-3-3-3-3-3-3-3--|
D|-4-4-4-4--2-2-2-2--2-2-2-2-2-2-2-2--|
A|-2-2-2-2--x-x-x-x--4-4-4-4-4-4-4-4--|
E|-x-x-x-x-----------2-2-2-2-2-2-2-2--|


ADLIB:

guitar 1: G-D-;(3x) G-A

guitar 2:

e|-8----------12-10----------8----8--    -6--9--|
B|---8-8-8-10-------8-8-8-10---10----    -8--10-|
G|----------------------------------- 3x -7--9--|
D|-----------------------------------    -------|
A|-----------------------------------    -------|
E|-----------------------------------    -------|


NITRAM
06-05-08
04:39 PM





Comments


Popular The Bloomfields tabs & chords
Ale Chords
Iskul Bukol Chords
Never Let Her Slip Away Chords
Surfer Girl Chords
The Way I Care Chords
If I Fell Tabs
Never Let Her Slip Away Intro Tabs
Please Dont Go Tabs
Wala Nang Iba Tabs
Surfer Girl Ukulele


Song lyrics



↑ Back to top | Tablatures and chords are parodies/interpretations of the original songs. You may use it for private study, scholarship, research or language learning purposes only
© 2014 AZChords.com Contact us | Privacy policy | DMCA | Add/correct tabs | Request tabs | Top 50 tabs