» » »

The Band, The Weight Tabs (ver.4)

Artists:  A B C D E F G H I J K L M N O P Q R S T U V W X Y Z # 

The Weight Tabs (ver.4)

The Band Tabs
 Rating:
4.2/5 (5 votes)
The Weight lessons Tabs too difficult? Try these video lessons and learn fast
1
                The Weight
Music From Big Pink
The Band


intro

e||--0---0-2-5--0---0-0-0---------------------------------|
B||--0h2-0-0-0--0h2-0-2-0--3---3---3---3------------------|
G||------------------------2h4-2h4-2---2--2-2-2-2---------|
D||---------------------------------------2-2-4-2---------|
A||-----------------------------------------------4-2-0---|
E||-------------------------------------------------------|

verse:
     2x     2x     2x
e||----0-0----4-4----2-2----0-0-0-0-0---|
B||----2-2----5-5----3-3----2-2-3-2-2---|
G||----2-2----6-6----2-2----2-2-2-2-2---|
D||----2-2----6-6--0--------2-2-2-2-2---|
A||--0------4-------------0-------------|
E||-------------------------------------|

chorus:

e||----------------5-5-5-5-5-5---|
B||----------------7-7-7-7-7-7---|
G||--6-6-6--6-6-6--7-7-7-7-7-7---|
D||--7-7-7--7-7-7--7-7-7-7-7-7---|
A||--7-7-7--7-7-7--5-5-5-5-5-5---|
E||--5-5-5--4-4-4----------------|

bridge:

e||------------------------------2-2-2-2-2--|
B||------------------------------3-3-3-3-3--|
G||--6-6-6--6-6-6----------------2-2-2-2-2--|
D||--7-7-7--7-7-7--4-4-4--2-2-2-------------|
A||--7-7-7--7-7-7--4-4-4--2-2-2-------------|
E||--5-5-5--4-4-4--2-2-2--0-0-0-------------|
            
Submit corrections

comments powered by Disqus
↑ Back to top | The Band Tabs for The Weight. Lyrics for acoustic guitar and electric guitar. 1 Tablatures and chords are parodies/interpretations of the original songs. You may use it for private study, scholarship, research or language learning purposes only