» » »

The Band, This Wheel's On Fire Bass tabs (ver.1)

Artists:  A B C D E F G H I J K L M N O P Q R S T U V W X Y Z # 

This Wheel's On Fire Bass tabs (ver.1)

The Band Tabs
 Rating:
4/5 (4 votes)
This Wheel's On Fire lessons Tabs too difficult? Try these video lessons and learn fast
1
                This Wheel's on Fire
The Band
Bass Tab


Verse

|--------------------------------------------------|
|--------------------------------------------------|
|--------------2-3---2--3-5---3-5---5--7-8---3-5-6-|
|-5---5-5---5--------------------------------------|

|--------------------------------------------------|
|-------------------------------------------5h7-5--|
|-7-----------/7-/8-/5--7-8---8-5---5------------7-|
|-----0-/5-/7-------------------------5------------|

|---------------------------------------------------------|
|----------------------/7-5------------------------/7-5---|
|-3-3--3-/7-5-3-------------7-3-3--3-/7-5-3-------------7-|
|---------------5-5--5----------------------5-5--5--------|

|---------------------------------------------------|
|--------------------------------------------5h7~---|
|-3-3--3-/7-5-3---------3-5-7-8---8-5---5-----------|
|---------------5-5--5--------------------5---------|

chorus

|--------------------------------------------------------|
|------------2-3--3-x3----------------------5~-----------|
|-5--5--5--5-----------7-5-3-3--3--03-2-3-4--------------|
|--------------------------------------------------------|

|-------------------------------------------------------|
|-------------------------0-2-3---3---5---5---7~--------|
|----3--3-/2-----------3--------3---3---5---5-----------|
|-3-----------3--1-/3-----------------------------------|

Ending

|---------------------------------------------------------|
|-/7--/5-------------------------------------5--/7--5-----|
|---------7--5--3-----------3---------3--5-7---7------7-5-|
|-----------------5-3-5-3-5---5--5-05---------------------|

|------------------------------|
|------------------------------|
|------------------------------|
|-5--5--05-3-0-3-5--5-05-3-0-3-| &fade

Verse
Chorus
Verse 
Chorus
Verse 
Chorus
Ending
            
Submit corrections

comments powered by Disqus
↑ Back to top | The Band Bass for This Wheel's On Fire. Lyrics for acoustic guitar and electric guitar. 1 Tablatures and chords are parodies/interpretations of the original songs. You may use it for private study, scholarship, research or language learning purposes only