» » »

The Band, The Weight Bass tabs (ver.1)

Artists:  A B C D E F G H I J K L M N O P Q R S T U V W X Y Z # 

The Weight Bass tabs (ver.1)

The Band Tabs
 Rating:
4/5 (5 votes)
The Weight lessons Tabs too difficult? Try these video lessons and learn fast
                


          |--------------------------------------|
 Verse    |.------------------------------------.|
          |.--0---0----4---4---5---5------------.|  x4 
          |----------------------------5---5-----|
              A   A    C#m C#m D   D   A   A

          |--------------------------------------|
 Chorus   |.------------------------------------.|
          |.-----0------------------5-----------.|  x3
          |-------------4------------------------|
               "Take a Load off, Fanny"
                 A      A           D

          |--------------------------------------|
 and then |--------------------------------------|
          |----5/\/\/\/\/\/\/\/\/\/\/\/\/\/---0--|
          |--------------------------------------|
            "Annnnd You Put the love right on me"
               D                              A

          |--------------------------------------|
 Interlude|.------------------------0------0----.|  x2
          |.--0---------------------------------.|
          |------4---2-------0-------------------|
              A  A   F#m7    E      D      D
            
Submit corrections

comments powered by Disqus
↑ Back to top | The Band Bass for The Weight. Lyrics for acoustic guitar and electric guitar. Tablatures and chords are parodies/interpretations of the original songs. You may use it for private study, scholarship, research or language learning purposes only