» » »

The Unfaithful Servant Bass tabs (ver.1)

Artists:  A B C D E F G H I J K L M N O P Q R S T U V W X Y Z # 

The Unfaithful Servant Bass tabs (ver.1)

The Band
Rating:
5/5 (1 vote)
Tabs too difficult? Try these video lessons and learn fast.
                The Band
Bass Tab
Original Bassist: Rick Danko

Tempo=96BPM, 4/4 Time

Intro

|-----------|
|-----------|
|-----------|
|-2----4----|

Verse

||------------|-----------|-----------|-----------|
||o-----------|-----------|-----------|-----------|
||o-----------|-----------|-----------|-2----5----|
||--5----5----|-4----4----|-2----2----|-----------|

|-----------|-----------|-----------|-----------| *Second time only
|-----------|-----------|-----------|-----------|
|-----------|-----------|-----------|-2----2*---|
|-5----5----|-4----4----|-2----2----|-----------|

|-----------|-----------|-----------|-----------|
|-----------|-----------|-----------|-----------|
|-----------|-----------|-----------|-2----5----|
|-5----5----|-4----4----|-2----2----|-----------|

|-----------|-----------|-----------|-----------|
|-----------|-----------|-----------|-----------|
|-----------|-----------|-----------|-2----2----|
|-5----5----|-4----4----|-2----2----|-----------|

|-----------|-----------|-----------|------------|
|-----------|-----------|-----------|------------|
|-4----4----|-----------|-----------|---------2--|
|-----------|-4----4----|-2----2----|-0----4-----|

|-----------|------------|-----------|-----------|
|-----------|------2-----|-----------|-----------|
|-4----4----|-2-------4--|-----------|-----------|
|-----------|------------|-2----2----|-2----2----|
         3x
|--------||
|-------o||
|-------o||
|-1------||

Solo

|---------------|-------------|-------------|---------------|
|---------------|-------2-----|-------------|------------2--|
|----------4-7--|-----2-------|-------------|-2--2--2-4-----|
|-5---x-5-------|-4-------0---|-2---0-2---2-|---------------|

|---------------|--------------|-------------|--------------|
|---------------|-------2------|-------------|--------------|
|----------4-7--|-----2--------|-------------|-2--2--2-2----|
|-5---x-5-------|-4--------0-x-|-2---0-2---2-|--------------|

|--------------|----------------|--------------|--------------|
|--------------|--------2-------|--------------|-----------2--|
|---------4-7--|------2----0----|------------x-|-2----0-2-----|
|-5----5-------|-4-----------4--|-2---0-2------|--------------|

|---------------|----------------|--------------|---------------|
|---------------|----------------|--------------|---------------|
|----------4-7--|--------7--0----|--------------|-------2-4-----|
|-5---0-5-------|-4----7------4--|-2---x-2----0-|-7--7-------2--|

Ending

|-----------|-----------|-----------|-----------|
|-----------|-----------|-----------|-----------|
|-4----4----|-----------|-----------|-----------|
|-----------|-4----4----|-2----2----|-0----4----|

|-----------|------------|-----------|-----------|
|-----------|------2-----|-----------|-----------|
|-4----4----|-2-------4--|-----------|-----------|
|-----------|------------|-2----2----|-2----2----|

|------|-----*|
|------|-----*|
|------|-----*|
|-1----|-----*|
            
Tabs too difficult? Try these video lessons and learn fast.


comments powered by Disqus
↑ Back to top | Tablatures and chords are parodies/interpretations of the original songs. You may use it for private study, scholarship, research or language learning purposes only