» » »

The Band, The Shape I'm In Bass tabs (ver.1)

Artists:  A B C D E F G H I J K L M N O P Q R S T U V W X Y Z # 

The Shape I'm In Bass tabs (ver.1)

The Band Tabs
Rating:
0/5 (0 votes)
The Shape I'm In lessons Tabs too difficult? Try these video lessons and learn fast
                The Band
Bass Tab
Original Bassist: Rick Danko

Tempo=128BPM, 4/4 Time

Intro

|---------|------------|----------|-------------------|
|---------|------------|----------|-------8-10--------|
|---------|-------10\--|-3--------|--8-10-------10-8--|
|---------|------------|----------|-------------------|

Verse & Chorus

|---------------|---------------|---------------|---------------|
|---------------|---------------|---------------|---------------|
|---------------|---------------|---------------|---------------|
|-3--3-x3--3-0x-|-3--3--3--3-0x-|-3--3--3--3-0x-|-3--3--3--3-0x-|

|---------------|--------------|----------------|----------------|
|---------------|--------------|----------------|----------------|
|---------------|----------2-3-|-5--5-5-5-5-5-5-|-/5-5-5-5-7--7--|
|-3--3--3--3-0x-|-3--3--3------|----------------|----------------|

|---------------|---------------|---------------|---------------|
|---------------|---------------|---------------|---------------|
|---------------|-------3-4-5---|---------------|---------------|
|-3--3-x3--3-0x-|-3--3----------|-3--3--3--3-0x-|-3--3--3--3-0x-|

|---------------|--------------|-----------------|----------------|
|---------------|--------------|-----------------|----------------|
|---------------|----------2-3-|-5--5-5-/5-5-5-5-|-/5-5-5-5-7--7--|
|-3--3--3--3-0x-|-3--3--3------|-----------------|----------------|

|---------------|----------------|
|---------------|----------------|
|---------------|----------0-1-2-|
|-3--3-x3--3-0x-|-3--3-0-3-------|

Bridge

|-------------|----------------|-------------|----------------|
|-------------|----------------|-------------|----------------|
|-3---3--3--5-|-(5)-5--0-7--7--|-3---3--3--5-|-(5)-5--0-7--7--|
|-------------|----------------|-------------|----------------|

|-------------|----------------|-----------------|---------------|
|-------------|----------------|-----------------|---------------|
|-3---3--3--5-|-(5)-5--0-7--7--|-8-8-8-8-8-8-8-7-|-5--5-0-5-0-7--|
|-------------|----------------|-----------------|---------------|

Verse & Chorus

|---------------|---------------|---------------|--------------|
|---------------|---------------|---------------|--------------|
|---------------|---------------|---------------|----------2-3-|
|-3--3--3--3-0x-|-3--3--3--3-0x-|-3--3--3--3-0x-|-3--3--3------|

|----------------|----------------|---------------|----------------|
|----------------|----------------|---------------|----------------|
|-5--5-5-5-5-5-5-|-/5-5-5-5-7--7--|---------------|----------0-1-2-|
|----------------|----------------|-3--3-x3--3-0x-|-3--3-0-3-------|

Solo

|----------|-------------------|-----------|--------------------|
|----------|--------------8-10-|-----------|------8-10-8--------|
|-3--------|--/8--/10--10------|-----------|-8-10--------10-8-6-|
|----------|-------------------|-8-------8-|--------------------|

|---------------|---------------|---------------|-------------|
|---------------|---------------|---------------|-------------|
|---------------|---------------|---------------|----------3--|
|-3--3-x3--3-0x-|-3--3--3--3-0x-|-3--3--3--3-0x-|-3--3--3-----|

|-----------------|----------------|---------------|--------------|
|-----------------|----------------|---------------|--------------|
|-/5--5-5-5-5-5-5-|-/5-5-5-5-7--7--|---------------|-------3-4-5--|
|-----------------|----------------|-3--3-x3--3-0x-|-3--3---------|

|---------------|---------------|---------------|--------------|
|---------------|---------------|---------------|--------------|
|---------------|---------------|---------------|---------x2-3-|
|-3--3--3--3-0x-|-3--3--3--3-0x-|-3--3--3--3-0x-|-3--3-x3------|

|-----------------|----------------|---------------|----------------|
|-----------------|----------------|---------------|----------------|
|-5--5-5-/5-5-5-5-|-/5-5-5-5-7--7--|---------------|----------0-1-2-|
|-----------------|----------------|-3--3-x3--3-0x-|-3--3-0x3-------|

Bridge

|-------------|-----------------|-----------|----------------|
|-------------|-----------------|-----------|----------------|
|-3---3--3--5-|-(5)-5-5-0-7--7--|-3-------5-|-(5)-5--0-7--7--|
|-------------|-----------------|-----------|----------------|

|------------|----------------|-----------------|---------------|
|------------|----------------|-----------------|---------------|
|-3-----3--5-|-(5)-5--0-7--7--|-8-8-8-8-8-8-8-7-|-5--5-0-5-0-7--|
|------------|----------------|-----------------|---------------|

Verse & Chorus

|---------------|---------------|---------------|--------------|
|---------------|---------------|---------------|--------------|
|---------------|---------------|---------------|----------2-3-|
|-3--3--3--3-0x-|-3--3--3--3-0x-|-3--3--3--3-0x-|-3--3--3------|

|----------------|----------------|---------------|--------------|
|----------------|----------------|---------------|--------------|
|-5--5-5-5-5-5-5-|-/5-5-5-5-7--7--|---------------|-------3-4-5--|
|----------------|----------------|-3--3-x3--3-0x-|-3--3---------|

|---------------|---------------|---------------|--------------|
|---------------|---------------|---------------|--------------|
|---------------|---------------|---------------|----------2-3-|
|-3--3-x3--3-0x-|-3--3--3--3-0x-|-3--3--3--3-0x-|-3--3--3------|

|----------------|----------------|---------------|----------------|
|----------------|----------------|---------------|----------------|
|-5--5-5-5-5-5-5-|-/5-5-5-5-7--7--|---------------|----------0-1-2-|
|----------------|----------------|-3--3-x3--3-0x-|-3--3-0x3-------|

Solo

|----------|----------------|------------|-------------------|
|----------|----------------|------------|-----8-10-12-10-8--|
|-3--------|--/8--10--8--10-|---------/8-|--10---------------|
|----------|----------------|-8----------|-------------------|

|---------------|---------------|---------------|--------------|
|---------------|---------------|---------------|--------------|
|---------------|---------------|---------------|----------2-3-|
|-3--3--3--3-0x-|-3--3--3--3-0x-|-3--3--3--3-0x-|-3--3-x3------|

|----------------|----------------|---------------|--------------|
|----------------|----------------|---------------|--------------|
|-5--5-5-5-5-5-5-|-/5-5-5-5-7--7--|---------------|-------3-4-5--|
|----------------|----------------|-3--3-x3--3-0x-|-3--3---------|

|---------------|---------------|---------------|--------------|
|---------------|---------------|---------------|--------------|
|---------------|---------------|---------------|----------2-3-|
|-3--3-x3--3-0x-|-3--3--3--3-0x-|-3--3--3--3-0x-|-3--3--3------|

|----------------|----------------|---------------|--------------|
|----------------|----------------|---------------|--------------|
|-5--5-5-5-5-5-5-|-/5-5-5-5-7--7--|---------------|-------3-4-5--|
|----------------|----------------|-3--3-x3--3-0x-|-3--3---------|

|---------------|--------------|---------------|---------------|
|---------------|--------------|---------------|---------------|
|---------------|--------------|---------------|-----------2-3-|
|-3--3--3--3-3x-|-3-3--x3--3-x-|-3--3--3--3-3x-|-3-3--x3-------|

|----------------|----------------|---------------|---------------|
|----------------|----------------|---------------|---------------|
|-5--5-5-5-5-5-5-|-/5-5-5-5-7--7--|---------------|------x3-4-5-8-|
|----------------|----------------|-3--3-x3--3-0x-|-3--3----------|

|---------------|---------------|---------------|--------------|
|---------------|---------------|---------------|--------------|
|---------------|---------------|---------------|----------2-3-|
|-3--3-x3--3-0x-|-3--3--3--3-0x-|-3--3--3--3-0x-|-3--3--3------|

|----------------|----------------|---------------|--------------|
|----------------|----------------|---------------|--------------|
|-5--5-5-5-5-5-5-|-/5-5-5-5-7--7--|---------------|------x3-4-5--|
|----------------|----------------|-3--3-x3--3-0x-|-3--3---------|

|---------------|---------------|---------------|--------------|
|---------------|---------------|---------------|--------------|
|---------------|---------------|---------------|----------2-3-|
|-3--3--3--3-0x-|-3--3-x3--3-0x-|-3--3-x3--3-0x-|-3--3--3------|

|----------------|----------------|---------------|--------------|
|----------------|----------------|---------------|--------------|
|-5--5-5-5-5-5-5-|-/5-5-5-5-7--7--|---------------|--------------|
|----------------|----------------|-3--3-x3--3-0x-|-3-x-3--------|

|-----*|
|-----*|
|-----*|
|-----*|
            
Submit corrections

comments powered by Disqus
↑ Back to top | The Band Bass for The Shape I'm In. Lyrics for acoustic guitar and electric guitar. Tablatures and chords are parodies/interpretations of the original songs. You may use it for private study, scholarship, research or language learning purposes only