» » »

The Band, The Night They Drove Old Dixie Down Bass tabs (ver.1)

Artists:  A B C D E F G H I J K L M N O P Q R S T U V W X Y Z # 

The Night They Drove Old Dixie Down Bass tabs (ver.1)

The Band Tabs
Rating:
0/5 (0 votes)
The Night They Drove Old Dixie Down lessons Tabs too difficult? Try these video lessons and learn fast
                Verse
                           x2                           x2
G||-----------|------------||-----------|---------------||----------h----------||
D||-7----5----|------------||-----------|---------------||---h----10-12--------||
A||-----------|-8--7--5----||-7----8----|-10------------||-10-12---------------||
E||-----------|------------||-----------|----8----10----||---------------------||


Chorus
                              x2                           x2
G||-------------|-------------||-------------|-------------||
D||-------------|-------------||-------------|-------------||
A||-------------|-------------||---5---------|-------------||
E||-3--3--1--1--|-3--3--1--1--||-3--3--5--5--|-3--3--1--1--||

End of 1st Chorus
G||------------||
D||----5-------||
A||-3----3-----||
E||------------||

End Of 2nd Chorus
G||------------|------------||
D||----5-----3-|----5-------||
A||-3----3-----|-3----3-----||
E||------------|------------||

End Of 3rd Chorus
G||------------|-------------------||
D||----5-------|-4--2--0-----------||
A||-3----3-----|----------3--2--0--||
E||------------|-------------------||
after this one, play the chorus until fade out
            
Submit corrections

comments powered by Disqus
↑ Back to top | The Band Bass for The Night They Drove Old Dixie Down. Lyrics for acoustic guitar and electric guitar. Tablatures and chords are parodies/interpretations of the original songs. You may use it for private study, scholarship, research or language learning purposes only