>
 >
The Last Waltz

The Last Waltz Bass Tabs

The Band - The Last Waltz chords, tabs, tablatures, lyrics

Guitar lessons | Add/correct | Request | Top 50 tabs Artists:  A B C D E F G H I J K L M N O P Q R S T U V W X Y Z 0-9

The Last Waltz Bass Tabs – The Band

CD, Sheet music, Poster

Do you like The Last Waltz? Share with your friends now
Bass TabsTabs
The Last Waltz Theme - The Last Waltz - The Band - 1978 - For Mandolin

-----------------------------------------------------------------------------------------------|
--------------------------2-----------------------------4--7-5-4-2----5-4-2-0----2-3-4/7-------|
-2-4-6--6/7--6-4-6-4-2--2---6--6/7-6-4-6-4-3----2-4-6-7-----------------------2----------6-7---|
-----------------------------------------------------------------------------------------------|

-------------------------------2-1-0--------0-----2-------4-2-0--------------------------------|
-4-3-4----0--7-6-5---2-1-2---0--------4-3-4---0-5---0-2---------5-4-2-0------------------------|
--------2------------------2--------------------------------------------6-4-2------------------|
-----------------------------------------------------------------------------------------------|

-----------1-0------------------------------------------------0------0-------------------------|
-3-2-3---0-----5---2-0-2------7-5-3---------3----5-3-1---1/2-----1/2---------------------------|
-------2-----------------0--2---------7-6-7----3-----------------------------------------------|
-----------------------------------------------------------------------------------------------|

Tremolo Picking---------------------
-------------------------------2-1-0--------0-----2-------4-2-0-------2--0-5-------------------|
-4-3-4----0--7-6-5---2-1-2---0--------4-3-4---0-5---0-2---------5-4-2--------------------------|
--------2------------------2-------------------------------------------------------------------|
-----------------------------------------------------------------------------------------------|

-----------------------------------------------------------------------------------------------|
-0-2-3-4---------------------------------------------------------------------------------------|
---------2-3-4---3-4---3/4---7-7-6-4-2--1/2--1-2---6-6-4-2-0--------------4-4-2-----------1-2--|
---------------------------------------------------------------6-7--6-7---------7-6---5-6------|

-----------------------------------------------------------------------------------------------|
-----------------------------------------------------------------------------------------------|
-3-4--0-4--3/4---7-7-6-4-2--1-2---1-2---------4---------2--------0-----------------------------|
----------------------------------------7-6-4----7--4-2----4-2-1----4-5-6----------------------|

-----------------------------------------------------------------------------------------------|
-----------------------------------------------------------------------------------------------|
-2-1-0-----4----2-1-0-----2-------------0-----------2------------------------------------------|
-------6-4------------4-2-----7-6-5-2-1-----4-3-2-1----4-2-------------------------------------|

-----------------------------------------------------------------------------------------------|
---------------------------2-----------------------------4--7-5-4-2----5-4-2-0-----------------|
-2-4-6--6/7--6-4-6-4-2---2---6--6/7-6-4-6-4-3----2-4-6-7-----------------------2---------------|
-----------------------------------------------------------------------------------------------|

----------------0-2----------0-2-4---0--5---0-------------------5------------------------------|
-2-3-4/7----4-5-----------5---------------------4---0-----------4------------------------------|
--------------------------------------------------------2-------2------------------------------|
------------------------------------------------------------2---2------------------------------|





Comments


Popular The Band tabs & chords
Daniel Daniel And The Sacred Harp Chords
It Makes No Difference Chords
Jupiter Hollow Chords
Long Black Veil 1 Chords
When I Get My Reward Chords
When I Get My Reward Tabs
Across The Great Divide Ukulele
Mystery Train Ukulele
This Wheels On Fire Ukulele
Volcano Ukulele


Song lyrics



↑ Back to top | Tablatures and chords are parodies/interpretations of the original songs. You may use it for private study, scholarship, research or language learning purposes only
© 2014 AZChords.com Contact us | Privacy policy | DMCA | Add/correct tabs | Request tabs | Top 50 tabs