» » »

The Band, Shoot Out In Chinatown Bass tabs (ver.1)

Artists:  A B C D E F G H I J K L M N O P Q R S T U V W X Y Z # 

Shoot Out In Chinatown Bass tabs (ver.1)

The Band Tabs
 Rating:
4/5 (4 votes)
Shoot Out In Chinatown lessons Tabs too difficult? Try these video lessons and learn fast
1
                Shoot Out in Chinatown
The Band
Bass Tab
Original Bassist: Rick Danko

Tempo=112BPM, 4/4 Time

Intro

|---------|---------|---------|-----|
|---------|---------|---------|-----|
|---------|---------|---------|-----|
|---------|---------|---------|-----|

Verse

||-------------|-------------|-------------|---------------|| *Second time only
||o------------|-------------|-------------|--------------o||
||o-2---x-2----|-2---4-6---4-|-7--7--6--6--|-4--4----2*---o||
||-------------|-------------|-------------|---------------||

Chorus

|---------------|--------------|---------------|-------------|
|---------------|--------------|---------------|-------------|
|---------------|--------------|---------------|-------------|
|-0-0--0-1-1--1-|-2-2--2-4-4---|-0-0--0-1-1--1-|-2-2---2-2---|

|---------------|---------------|------------|------|
|---------------|---------------|-----4-2----|------|
|---------------|---------------|------------|-2----|
|-0-0--0-1-1--1-|-2-2--2-4-4--4-|-2----------|------|

|-----|
|-----|
|-----|
|-----|

Verse

||-------------|-------------|-------------|---------------|| *Second time only
||o------------|-------------|-------------|--------------o||
||o-2---x-2----|-2---4-6---4-|-7--7--6--6--|-4--4----2*---o||
||-------------|-------------|-------------|---------------||

Chorus

|---------------|--------------|---------------|---------------|
|---------------|--------------|---------------|---------------|
|---------------|--------------|---------------|---------------|
|-0-0--0-1-1--1-|-2-2--2-4-4---|-0-0--0-1-1--1-|-2-2-2--2-2-2--|

|---------------|--------------|-------------|------|
|---------------|--------------|----6--------|------|
|---------------|--------------|-------7--7--|-2----|
|-0-0--0-1-1--1-|-2-2--2-4---2-|-4-----------|------|

|---------|---------|---------|-----|
|---------|---------|---------|-----|
|---------|---------|---------|-----|
|---------|---------|---------|-----|

Verse

|------------|-------------|-------------|---------|
|------------|-------------|-------------|---------|
|---2---2-2--|---2-4-6---2-|-7--7--6--6--|-4--4----|
|------------|-------------|-------------|---------|

|------------|--------------|------------|------------|
|------------|--------------|------------|------------|
|-2---x-2----|-2-4--6---4-6-|-7----6--6--|-4--4----2--|
|------------|--------------|------------|------------|

Chorus

|---------------|--------------|---------------|-------------|
|---------------|--------------|---------------|-------------|
|---------------|--------------|---------------|-------------|
|-0-0--0-1-1--1-|-2-2--2-4-4---|-0-0--0-1-1--1-|-2---2-2--2--|

|--------------|--------------|----------|-------|
|--------------|--------------|----------|-------|
|--------------|--------------|----------|-2-----|
|-0-0--0-1-1---|-2-2--2-4---4-|-2--------|-------|

Ending

||-----------|----------|----------|------||
||o----------|----------|----------|-----o||
||o-2--------|-2--------|-2--------|-----o||
||-----------|----------|----------|------||

|----------|----------|----------|--------|
|----------|----------|----------|--------|
|---2------|---2------|---2------|---2----|
|----------|----------|----------|--------|

|----------|---------|----------|--------|
|----------|---------|----------|--------|
|---2------|---------|---2------|---2----|
|----------|---------|----------|--------|

|----------|---------|---------|-----*|
|----------|---------|---------|-----*|
|---2------|---------|---------|-----*|
|----------|---------|---------|-----*|
            
Submit corrections

comments powered by Disqus
↑ Back to top | The Band Bass for Shoot Out In Chinatown. Lyrics for acoustic guitar and electric guitar. 1 Tablatures and chords are parodies/interpretations of the original songs. You may use it for private study, scholarship, research or language learning purposes only