» » »

The Band, Out Of The Blue Bass tabs (ver.1)

Artists:  A B C D E F G H I J K L M N O P Q R S T U V W X Y Z # 

Out Of The Blue Bass tabs (ver.1)

The Band Tabs
 Rating:
4/5 (4 votes)
Out Of The Blue lessons Tabs too difficult? Try these video lessons and learn fast
1
                Out of the Blue
The Band
Bass Tab
Bassist: Rick Danko

180BPM, 3/4

Intro

|--------|-------|-------|--------|--------|-------|--------|--------|
|--------|-------|-------|--------|--------|-------|--------|--------|
|-3~-----|-------|-------|--------|-3~-----|-------|--------|--------|
|--------|-------|-------|-----3--|--------|-------|-1------|-3------|

|--------|-------|--------|------|-5~-----|-------|--------|--------|
|--------|-------|-3------|-5----|--------|-------|-3------|-5------|
|-3~-----|-------|--------|------|--------|-------|--------|--------|
|--------|-------|--------|------|--------|-------|--------|--------|

Chorus

||---------|----------|--------|-------|--------|---------|--------|---------|
||o--------|----------|--------|-------|-7------|---------|-5------|---------|
||o-3------|-3--5--6--|-7------|-------|--------|---7--8--|--------|---5--7--|
||---------|----------|--------|-------|--------|---------|--------|---------|

|--------|-------|--------|--------|--------|-------|--------|--------||
|--------|-------|-5------|--------|--------|-------|-3------|-5-----o||
|-8------|-------|--------|--------|-3------|-------|--------|-------o||
|--------|-------|--------|-3------|--------|-------|--------|--------||

Verse

||---------|----------|--------|-------|--------|-------|--------|--------|
||o--------|----------|--------|-------|-7------|-------|-7------|-5------|
||o-3------|-3--5--6--|-7------|-------|--------|-------|--------|--------|
||---------|----------|--------|-------|--------|-------|--------|--------|

|--------|---------|--------|---------|--------|---------|--------|--------||
|-3------|---2--3--|-5------|---2--3--|-5------|-5-------|--------|-------o||
|--------|---------|--------|---------|--------|------5--|--------|-------o||
|--------|---------|--------|---------|--------|---------|-3------|-3------||

Chorus

|--------|----------|--------|-------|--------|---------|--------|---------|
|--------|----------|--------|-------|-7------|---------|-5------|---------|
|-3------|-3--5--6--|-7------|-------|--------|---7--8--|--------|---5--7--|
|--------|----------|--------|-------|--------|---------|--------|---------|

|--------|-------|--------|--------|--------|-------|--------|--------|
|--------|-------|-5------|--------|--------|-------|-3------|-5------|
|-8------|-------|--------|--------|-3------|-------|--------|--------|
|--------|-------|--------|-3------|--------|-------|--------|--------|

|--------|----------|--------|-------|--------|---------|--------|---------|
|--------|----------|--------|-------|-7------|---------|-5------|---------|
|-3------|-3--5--6--|-7------|-------|--------|---7--8--|--------|---5--7--|
|--------|----------|--------|-------|--------|---------|--------|---------|

|--------|-------|--------|--------|--------|-------|--------|-------|
|--------|-------|-5------|--------|--------|-------|--------|-------|
|-8------|-------|--------|--------|-3------|-------|--------|-------|
|--------|-------|--------|-3------|--------|-------|-1------|-------|

|--------|-------|--------|------|
|--------|-------|--------|------|
|-3------|-------|--------|------|
|--------|-------|-1------|-1----|

Verse

|---------|-5--7--8--|-9------|-------|--------|--------|--------|--------|
|------5--|----------|--------|-------|-7------|--------|-7------|-5------|
|-3-------|----------|--------|-------|--------|-----7--|--------|--------|
|---------|----------|--------|-------|--------|--------|--------|--------|

|--------|---------|--------|---------|--------|---------|--------|--------|
|-3------|---2--3--|-5------|---2--3--|-5------|-5-------|--------|--------|
|--------|---------|--------|---------|--------|------5--|--------|-2------|
|--------|---------|--------|---------|--------|---------|-3------|--------|

|---------|-5--7--8--|-9------|-------|--------|--------|--------|--------|
|------5--|----------|--------|-------|-7------|--------|-7------|-5------|
|-3-------|----------|--------|-------|--------|-----7--|--------|--------|
|---------|----------|--------|-------|--------|--------|--------|--------|

|--------|----------|--------|---------|--------|---------|--------|--------|
|-3------|-3--2--3--|-5------|---2--3--|-5------|-5-------|--------|--------|
|--------|----------|--------|---------|--------|------5--|--------|--------|
|--------|----------|--------|---------|--------|---------|-3------|-3------|

Chorus

|--------|----------|--------|-------|--------|---------|--------|---------|
|--------|----------|--------|-------|-7------|---------|-5------|---------|
|-3------|-3--5--6--|-7------|-------|--------|---7--8--|--------|---5--7--|
|--------|----------|--------|-------|--------|---------|--------|---------|

|--------|-------|--------|--------|--------|--------|--------|--------|
|--------|-------|-5------|--------|--------|--------|--------|--------|
|-8------|-------|--------|--------|-3------|-3------|--------|--------|
|--------|-------|--------|-3------|--------|--------|-1------|-3------|

|--------|----------|--------|-------|--------|---------|--------|---------|
|--------|----------|--------|-------|-7------|---------|-5------|---------|
|-3------|-3--5--6--|-7------|-------|--------|---7--8--|--------|---5--7--|
|--------|----------|--------|-------|--------|---------|--------|---------|

|--------|--------|--------|--------|--------|-------|--------|--------|
|--------|--------|-5------|-5------|--------|-------|--------|--------|
|-8------|-8------|--------|--------|-3------|-------|--------|--------|
|--------|--------|--------|--------|--------|-------|-1------|-1------|

|--------|--------|--------|--------|--------|---------|--------|------|
|--------|--------|--------|--------|--------|---------|--------|------|
|-3------|-3------|--------|--------|-3------|-3-------|--------|------|
|--------|--------|-1------|-3------|--------|------3--|-1------|-3----|

|--------|-------|-------|-----*|
|--------|-------|-------|-----*|
|--------|-------|-------|-----*|
|-8~-----|-------|-------|-----*|
            
Submit corrections

comments powered by Disqus
↑ Back to top | The Band Bass for Out Of The Blue. Lyrics for acoustic guitar and electric guitar. 1 Tablatures and chords are parodies/interpretations of the original songs. You may use it for private study, scholarship, research or language learning purposes only