» » »

Look Out, Cleveland Bass tabs (ver.1)

Artists:  A B C D E F G H I J K L M N O P Q R S T U V W X Y Z # 

Look Out, Cleveland Bass tabs (ver.1)

The Band
Rating:
0/5 (0 votes)

Hard to play? Try these video lessons and learn fast.
                By Cameron Sima

Riff (x2)

--------------5-p-3---------3-2---------|
------5---------------------------------|
------------------------3---------------|
----------------------------------------|


Chorus (x2)
------3-3--1-3-1-3-1------2-2--2------------------0-2-3-------------------|
----------------------------3---------3----0-1-3------------------------3-|
--1-----------------------------------------------------------------------|

Verse
--5--------5------------------------2--5----------5---------------|
------5--------5-4-3--------3--5----------5---------5-4-3-----3-5-|
-------------------------3---------------------------------3------|

-----------------------------1--4--2------------0h2-2-2--0----|
--1----2--------1h2---2-------------------------------------3-|
------------2--------2----------------------------------------|
--------------------------------------------------------------|

-------------------------------|
-------------3--5--------------|
----3h5-5----------------5--3--|
--------------------3--5-------|
            
Hard to play? Try these video lessons and learn fast. | Correct




comments powered by Disqus
↑ Back to top | Tablatures and chords are parodies/interpretations of the original songs. You may use it for private study, scholarship, research or language learning purposes only